Acordes de Guitarra » P »Punto Nazca » Niño Aymara (Tab)

Niño Aymara
Punto Nazca

Letras, Acordes y Tabs para Guitarra, Bajo y Ukulele

  •                    SIb          FA  FA 
    e-----------------------------------------
    A-------0---1-0-3--1-1-1-1----1---1-0-----
    E---3-2---3-------------------------------
    C-2----------------2-2-2-2--0---0---------
    G-----------------------------------------
    
      SIb               DOm          SOLm  SOLm
    e--------------------------------------3--
    A-------0----1-0-3--3-3-3-3------1--------
    E---3-2----3-----------------------3------
    C-3-----------------3-3-3-3--2-0-----2----
    G-----------------------------------------
    
      SOLm             SIb           FA 
    e-----------------------------------------
    A-------0---1-0-3-------------------------
    E---3-2---3-------------------------------
    C-2----------------3-3-3-5-2-5-2-5-5------
    G-----------------------------------------
    
  • +
    ¡Colabora con nosotros!
    Envíanos tu versión de esta canción

Letra de Niño Aymara
El rasgueo en el charango:
Solm FaM-Lam FaM FaM
Saben... mejor si por cada acorde dan un rasgueo hacia abajo asi
se ubican en el rasgueo... y luego ya lo tocan como ustedes quieran,
la idea es que se ubiquen...básicamente el SiM2 es SolM en el 5to traste
y el lam2 es Solm en el 3er traste...
La guitarra en el rasgueo del charango solo va en Solm y FaM
Crece hoy tu esperanza
Niño aymara
Tu porvenir esta en los andes
Crece tu canto boliviano
Miles de sueños en tu mirar
Llokallitu...
Tornasol primaveral
Niño aymara
Florecerá el pan, la miel
Abre tu mente para entender
Yo quiero verte siempre feliz
Llokallitu...
Esto es en el quenacho y en las sankas
pero con el Rem antes de Solm sale mejor.
Por si acaso pongo el acorde Re#M por que la anterior me
preguntaron que como era.
Si alguien quiere las tablaturas del bajo eléctrico me lo
piden a mi correo...me da flojera ponerlo jajaja... chau!!!!

Video de Niño Aymara
[]




[Niño Aymara chords][Niño Aymara cifra]
© LaCuerda.net · aviso legal · privacidad · es · en · pt · contacto