Acordes de Guitarra » P »Proyecto Uno » 25 Horas (Tab)

25 Horas
Proyecto Uno

Letras, Acordes y Tabs para Guitarra, Bajo y Ukulele

  • E||-------------------|-----------|-----------|---------------|
    B||-------------------|-----------|-----------|-----------1---|
    G||-------------------|-----------|-----------|-------2-------|
    D||-------------------|-----------|-----------|----3----------|
    A||-------------------|-----------|-----------|---------------|
    E||-------------------|-----------|-----------|--1------------|
    
    
    
    -----------------|---------------|-----3---------------|-------6-------|
    -----------------|-----------3---|----------3----------|----3------6---|
    --------0--3-----|----0--3-------|---------------3-----|---------------|
    -----2-----------|---------------|---------------------|---------------|
    -----------------|---------------|-------------------1-|--L------------|
    --0------------3-|--L------------|--3------------------|---------------|
    
    
    -----------3---|-------0---3---|-----8-------0---|---------------|
    --------3------|----1----------|----------8------|-----------1---|
    -----3---------|---------------|-----------------|-------2-------|
    
  • +
    ¡Colabora con nosotros!
    Envíanos tu versión de esta canción

Letra de 25 Horas
Adelanto:
Versos:
¡¡ ejej siempre colaborando con la musik ¡¡¡

Video de 25 Horas
[]




[25 Horas chords][25 Horas cifra]
© LaCuerda.net · aviso legal · privacidad · es · en · pt · contacto