Acordes de Guitarra » P »Proyección » Tu abandono (Tab)

Tu abandono
Proyección

Letras, Notas, Punteos, Tablaturas y Acordes de Guitarra (Tabs & Chords)

  • Letra y Acordes
    G:
         3T
    1c|---x--|-----|-----
    2c|---x--|-----|-----
    3c|---x--|--0--|-----
    4c|---x--|-----|--0--
    5c|---x--|-----|--0--
    6c|---x--|-----|-----
    
    
    Me dices que te vas Pues anda vete
    Dm                              A#
    Ya no vuelvas a cruzarte en mi camino  [bis]
                                    C  F
    
    Te quise con gran pasión yo no lo niego
                                      G  F
    Tu fuiste mi adoración mi único anhelo
                                     G  F
    Hoy que te alejas de mi será muy triste
    
  • Letra y Acordes
    MIm                             DO 
    Me dices que te vas Pues anda vete
                                     RE7SOL 
    Ya no vuelvas a cruzarte en mi camino  [bis]
    
                             DO       LA SOL
    Te quise con gran pasión yo no lo niego
                                     LA SOL
    Tu fuiste mi adoración mi único anhelo
                            DO       LA  SOL
    Hoy que te alejas de mi será muy triste
                                    SI7MIm
    Mas tarde como olvidar muestro cariño
    
    
    MIm                         DO
    Cuando te conocí me prometiste
                                   RE7SOL 
    Juraste quererme siempre eternamente   [bis]
    
    
  • Tablatura
     MIm                             DO 
    Me dices que te vas pues anda vete
                                 RE7  SOL 
    ya no vuelvas a cruzarte en mi camino.(bis)
    
                             DO     LAm SOL 
    Te quise con gran pasion yo no lo niego
                           DO       LAm SOL 
    tu fuiste mi adoracion mi unico anhelo
                            DO      LAm SOL 
    hoy que te alejas de mi sera muy triste
                           LAm     SI7 MIm
    mas tarde como olvidar nuestro cariño.
    
    
    (viento)
    
    
    MIm                          DO 
    Cuando te conoci me prometiste
    
  • Tablatura
    intro:
    
    e--------0---0---2---2---0----
    b--0-2-4---4---4---4---4------
    g-----------------------------
    d-----------------------------
    a-----------------------------
    E-----------------------------
    
    
    e--------------------------------
    b--0---0-------------------------
    g----2---2-----------------------
    d----------1-2-2-------1-4-1-2---
    a----------------2---3-----------
    E------------------3-------------
    
    
    e--5---------5-------------
    b--7-7-8---7-7-7-8---7-----
    g----8-9-8-----8-9-8-------
    d--------------------------
    a--------------------------
    E--------------------------
    
    e--7-----------------------
    b--8-10-8-7-8-10-7-8-------
    g----11-9-8-9-11-9-9-------
    d--------------------------
    a--------------------------
    E--------------------------
    
    
    este es el intro, cualquier duda a mi correo (¤_¤)
  • +
    ¡Colabora con nosotros!
    Envíanos tu versión de esta canción

Letra de Tu abandono
Me dices que te vas Pues anda vete
Ya no vuelvas a cruzarte en mi camino [bis]
Te quise con gran pasión yo no lo niego
Tu fuiste mi adoración mi único anhelo
Hoy que te alejas de mi será muy triste
Mas tarde como olvidar muestro cariño
Cuando te conocí me prometiste
Juraste quererme siempre eternamente [bis]
No comprendo la razón de tu abandono
LASOL
Puesto a que nunca te di ningún motivo
Será talvez por causa de mi pobreza
Si es así vete no más busca riquezas
No quiero que te cruces en mi camino
LASOL
Porque nunca fuiste fiel con mi cariño
Yo buscare otra mejor que te comprenda
Que sepa querer y amar sin condiciones.
Ante cualquier duda manden un e-mail
percycri@sinectis.com o percycris@uole.com
Transcripción de Sejas cristian Percy
en caso de copiar estos acordes citar e-mail y transcriptor

Videos de Tu abandono
[ver más videos]

[ver todas las canciones]


© LaCuerda.net · Aviso Legal · Privacidad