Tablatura para Bajo de los Prisioneros: We Are Southamerican Rockers
Conexión · Inscripción
Letras y Acordes
Pantalla Completa
Imprimir
Versión Texto
Añadir Favorito
Otras Versiones

Mostrar Diagramas
Desfile Automático
Formato del Texto


We Are Southamerican Rockers(BAJ)

los Prisioneros

calidad:
pris0407
AUTOR: Jorge González
ALBUM: Grandes Exitos (1991)
Enviado por hubert
Esta es la transcripción exclusiva del bajo. La canción original
(no el concierto) tiene en parte arreglos que solo tocas la
guitarra. Por eso no se extrañen si al parecer faltan notas.
Esas notas que “faltan” las toca la guitarra.
Escuchen la canción para sacarla bien…

ESTROFA A:

 Son hermosos ruidos, que salen de las tiendas
 atraviesan a la gente y le mueven los pies.
 Baterías danzantes, guitarras afiladas,
 voces escépticas que cantan de política.

G|---------------------------------------------------------------------
D|------------------------------5--4--------------------------0--------
A|-0-3-0--4h5-5-5-4h5-5-5-4h5-5-------4h5-5-5-4h5-5--------------------
E|------------------------------------------------------3p2p0----------

ESTROFA B:

       D7
    G|-----
    D|-----    (solo le das un toque a la cuerda, donde
    A|--5--     indica el D7 en la letra)
    E|-----

 D7
 No te asustes, es mejor que te boten,
 hoy ya no has llegado a tu trabajar.
     D7
 No atiendas el mensaje, atiende los golpes,
 decimos lo que sabes, pero sabemos cómo hablar.

        G           A
    G|-----     G|-----
    D|-----     D|-----
    A|-----     A|-----
    E|--3--     E|--5--

          G     G G
 Es como rock`n roll, pura música basura,
      A       A  A
 un poco transformada ¿para que ser igual?
    G       G  G
 pintamos el mono, pero nos da lo mismo,
      A        A  A
 plagiando y copiando como todos los demás.

 ELvis!...Sacúdete en tu cripta!

 CORO:

G|---------------------------------------------------------------------
D|---------------------------------------------------------------------
A|---5--5-------------------------0--5--5------------------------0-----
E|-----------0-2-3---------5--5----------------0-2-3------5--5---------

    We are          southamerican    rockers




G|---------------------------------------------------------------------
D|---------------------------------------------------------------------
A|---5----5-----------------------------0--5--5------------------------
E|---------------0-2-3----------5----5--------------0-2-3------5--5----

   Nous sommes            rockers sudamericaines



 PÁRRAFO B:

 D
 No nos acompleja revolver los estilos,
            D
 mientras huelan a gringo (yankee) y se puedan bailar.
            D
 Nuestra pésima música no es placer para dioses,
    D
 jamás ganaremos la inmortalidad (pajero).

 G      G  G
 Flores y amores, asunto de niñas.
 G  A      A  A
 Gritar y patear es aprovechar (tu sangre joven!)
 D  G      G  G
 Este es un negocio, pero un pésimo negocio
 G  A      A  A
 Mentir y robar, pero mejor funcionar.
   A
 Presley!...Sacúdete en tu cripta!

 CORO: (igual que arriba) x2

    We are southamerican...


PARRAFO C:

G|-----------------------------------
D|-----------2-5-------------4-7------
A|-----2---5-----------4---7---------
E|-3---------------5-----------------
  Southamerican rockers, southamerican ilusos,

G|-----------------------------------
D|-----------2-5-------------4-7-----
A|-----2---5-----------4---7---------
E|-3---------------5-----------------
  Sin mujeres, sin millones, sin cadillac.

G|-----------------------------------
D|-----------2-5-------------4-7------
A|-----2---5-----------4---7--------
E|-3---------------5-----------------
  Lo hacemos perfecto, lo hacemos fantástico

G|-----------------------------------
D|-----------------------------------
A|-------2-----5----------2-----5----
E|-3----------------3----------------
  y sentimos envidia de los rockers de

G|-------------------------------------------------------------------
D|-----------4-7--------------4-7-----------------4-7----------------
A|-----4---7-----------4---7--------------4---7----------------------
E|-5---------------5------------------5------------------5--5--------
  verdad...

  SIN NINGUNA VERGÜENZA!

En el solo de la guitarra, y hasta el final de la canción
se toca como en el coro:
G|---------------------------------------------------------------------
D|---------------------------------------------------------------------
A|---5--5-------------------------0--5--5------------------------0-----
E|-----------0-2-3---------5--5----------------0-2-3------5--5---------


Espero que este güena…
Este fichero es trabajo propio de su transcriptor y representa su interpretación personal de la canción. El material contenido en esta página es
para exclusivo uso privado, por lo que se prohibe su reproducción o retransmisión, así como su uso para fines comerciales.

© LaCuerda.net · Aviso Legal · Privacidad