Tablatura para Bajo de los Prisioneros: ¿Por qué no se van?
Conexión · Inscripción
Letras y Acordes
Pantalla Completa
Imprimir
Versión Texto
Añadir Favorito
Otras Versiones

Mostrar Diagramas
Desfile Automático
Formato del Texto


¿Por qué no se van?(BAJ)

los Prisioneros

calidad:
pris0016
AUTOR: Jorge Gonzalez
ALBUM: Pateando Piedras (1985)
Enviado por miguel
aqui les va este gran temaso en bajo ¡¡¡DISFRUTENLO!!!

verso
    DO
G-----------|
D-----------| X 2
A----3-3----|
E-0-3----3--|

   mim
G-----------|
D-----------| X 2
A----2-2----|
E-0-3----3--|

   DO7
G-----------|
D-----------| X 2
A----1-1----|
E-0-3----3--|

      rem
G----------------------|
D----------------------|
A-5--5-5---5---5-5--7--|
E--5-----5---5---------|


    fam        SOL
G------------------------|
D-3---3-3----5---5-5-----|
A---3-----3----5------5--|
E------------------------|


coro

    DO
G------------|
D------------|X 2
A-----3-3----|
E-0-3-----3--|

     FA                 lam             SOL#     LA#
G------------------------------------|----------------|
D-3-------3-3-3-5--7----------7-7-7--|-6-----------8--|
A--3----3--3---------7---------7-----|--6--------8----|
E----1-1----------------5-5-5--------|-----6-6-8------|


se repite los versos.
   fam         SOL  
G--------------------|
D-3--33.-----5--55.--|
A--------------------|
E--------------------|

segundo coro
    DO
G------------|
D------------| X 2
A-----3-3----|
E-0-3-----3--|

           FA
G--------------------------|
D-----3-3-3-------3-3-3----|
A---3-------3----3------3--|
E-1------------1-----------|

           lam                  SOL#     LA#
G----------------------------|----------------|
D-----7-7-7--------7-7-7-----|-6-----------8--|
A---7-------7----7--------7--|---6-------8----|
E-5------------5-------------|-----6-6-8------|

oh,oh,oh,oh,oh,oh.
         SOL#               LA#
G----------------------------------------|
D----------------------------------------| X 2
A----6--------6--------8--------8--------|
E--------4---------4-------6--------6----|


en el solo que hace claudio narea el bajo sigue igual a los versos.



un saludo para la jocelyn del tercero del falcon college.
Este fichero es trabajo propio de su transcriptor y representa su interpretación personal de la canción. El material contenido en esta página es
para exclusivo uso privado, por lo que se prohibe su reproducción o retransmisión, así como su uso para fines comerciales.

© LaCuerda.net · Aviso Legal · Privacidad