Tablatura para Guitarra de los Prisioneros: ¿Por qué no se van?
Conexión · Inscripción
Letras y Acordes
Pantalla Completa
Imprimir
Versión Texto
Añadir Favorito
Otras Versiones

Mostrar Diagramas
Desfile Automático
Manipular Acordes
Formato del Texto


¿Por qué no se van?(TAB)

los Prisioneros

calidad:
pris0013
AUTOR: Jorge Gonzalez
ALBUM: Pateando Piedras (1985)
Enviado por Guillermo
Bueno, este es le punteo que hace el Claudio Narea
en el tema, debes cambiar efecto para hacerlo para
que no suene tan vacío, es muy simple, solo lleva el 
ritmo:


1--13---12---13---12---/--13---12---13---12--
2----13---13---13---13-/----12---12---12---12
3----------------------/---------------------
4----------------------/---------------------
5----------------------/---------------------
6----------------------/---------------------


1--13---12---13---12---/--------------
2----11---11---11---11-/---10---------
3----------------------/--------------
4----------------------/--------------
5----------------------/--------------
6----------------------/--------------
Este fichero es trabajo propio de su transcriptor y representa su interpretación personal de la canción. El material contenido en esta página es
para exclusivo uso privado, por lo que se prohibe su reproducción o retransmisión, así como su uso para fines comerciales.

© LaCuerda.net · Aviso Legal · Privacidad