Tablatura para Bajo de los Prisioneros: ¿Por qué no se van?
Conexión · Inscripción
Letras y Acordes
Pantalla Completa
Imprimir
Versión Texto
Añadir Favorito
Otras Versiones

Mostrar Diagramas
Desfile Automático
Formato del Texto


¿Por qué no se van?(BAJ)

los Prisioneros

calidad:
pris0012
AUTOR: Jorge Gonzalez
ALBUM: Pateando Piedras (1985)
Enviado por Rene
 Esta canción es una de mis favoritas de los Prisioneros,
y como nadie ha hecho una transcripción de bajo, decidí
hacerla yo mismo. El coro es algo complicado, pero te aseguro
ke esta bien.

-|Parte A1|-
     e   e   q   q   e   e  x2  e   e   q   q   e   e  x2  e   e   q   q   e   e  x2
G||--------------------------|--------------------------|--------------------------|
D||--------------------------|--------------------------|--------------------------|
A||----------3---3---3-------|----------2---2---2-------|----------1---1---1-------|
E||--0---3---------------3---|--0---3---------------3---|--0---3---------------3---|

    e   e   q   q   q  x2
G|----------------------|
D|----------------------|
A|--5---5-------5---5---|
E|----------5-----------|

    e   e   q   q   e   e  x2  e   e   q   q   e   e  x2  e   e   q   q   e   e  x2
G|--------------------------|--------------------------|--------------------------|
D|--------------------------|--------------------------|--------------------------|
A|----------3---3---3-------|----------2---2---2-------|----------1---1---1-------|
E|--0---3---------------3---|--0---3---------------3---|--0---3---------------3---|

    e   e   q   q   e   e      e   e   q   q   q
G|--------------------------|----------------------|
D|--------------------------|----------------------|
A|--5-------5---5---5-------|--5-------5---5---7---|
E|------5---------------5---|------5---------------|

    e   e   q   q   q      e   e   q   q   q
G|----------------------|----------------------||
D|--3-------3---3---3---|--5-------5---5---5---||
A|------3---------------|------5---------------||
E|----------------------|----------------------||


-|Parte B1|-
     e   e   q   q   e   e      e   e   q   q   q
G||--------------------------|----------------------|
D||--------------------------|----------------------|
A||----------3---3---3-------|----------3---3---3---|
E||--0---3---------------3---|--0---3---------------|

    e   e   q   q   e   e      e   e   q   e   e   e   e
G|--------------------------|------------------------------|
D|----------3---3---3-------|----------3-------3-------5---|
A|------3---------------3---|------3-------3-------3-------|
E|--1-----------------------|--1---------------------------|

    e   e   q   q   e   e      e   e   q   q   q
G|--------------------------|----------------------|
D|----------7---7---7-------|----------7---7---7---|
A|------7---------------7---|------7---------------|
E|--5-----------------------|--5-------------------|

    e   e   q   q   q      e   e   q   q   q
G|----------------------|----------------------|
D|--6-------------------|----------8---8---8---|
A|------6---------------|------8---------------|
E|----------8---8---8---|--6-------------------|


-|Parte A2|-
     e   e   q   q   e   e  x2  e   e   q   q   e   e  x2  e   e   q   q   e   e  x2
G||--------------------------|--------------------------|--------------------------|
D||--------------------------|--------------------------|--------------------------|
A||----------3---3---3-------|----------2---2---2-------|----------1---1---1-------|
E||--0---3---------------3---|--0---3---------------3---|--0---3---------------3---|

    e   e   q   q   e   e      e   e   q   q   q
G|--------------------------|----------------------|
D|--------------------------|----------------------|
A|--5-------5---5---5-------|--5-------5---5---5---|
E|------5---------------5---|------5---------------|

    e   e   q   q   e   e  x2  e   e   q   q   e   e  x2  e   e   q   q   e   e  x2
G|--------------------------|--------------------------|--------------------------|
D|--------------------------|--------------------------|--------------------------|
A|----------3---3---3-------|----------2---2---2-------|----------1---1---1-------|
E|--0---3---------------3---|--0---3---------------3---|--0---3---------------3---|

    e   e   q   q   e   e      e   e   q   q   q
G|--------------------------|----------------------|
D|--------------------------|----------------------|
A|--5-------5---5---5-------|--5-------5---5---7---|
E|------5---------------5---|------5---------------|

    q.  e   q   q      q.  e   q   q
G|--------------r---|--------------r---||
D|--3---3---3---e---|--5---5---5---e---||
A|--------------s---|--------------s---||
E|--------------t---|--------------t---||


-|Parte B2|-
     e   e   q   q   e   e      e   e   q   q   q
G||--------------------------|----------------------|
D||--------------------------|----------------------|
A||--3-------3---3---3-------|--3-------3---3---3---|
E||------3---------------3---|------3---------------|

    e   e   q   q   e   e      e   e   q   q   q
G|--------------------------|----------------------|
D|--3-----------------------|--3-------3---3---5---|
A|------3---------------3---|------3---------------|
E|----------1---1---1-------|----------------------|

    e   e   q   q   e   e      e   e   q   q   q
G|--------------------------|----------------------|
D|--7-----------------------|--7-------7---7---7---|
A|------7---------------7---|------7---------------|
E|----------5---5---5-------|----------------------|

    e   e   q   q   q      e   e   q   q   q
G|----------------------|----------------------|
D|--6-------------------|----------8---8---8---|
A|------6---------------|------8---------------|
E|----------8---8---8---|--6-------------------|

     e   e   q   q   e   e      e   e   q   q   q
G|--------------------------|----------------------|
D|--------------------------|----------------------|
A|----------3---3---3-------|----------3---3---3---|
E|--0---3---------------3---|--0---3---------------|

    e   e   q   q   e   e      e   e   q   q   q
G|--------------------------|----------------------|
D|--3-----------------------|--3-------3---3---5---|
A|------3---------------3---|------3---------------|
E|----------1---1---1-------|----------------------|

    e   e   q   q   e   e      e   e   q   q   q
G|--------------------------|----------------------|
D|--7-----------------------|--7-------7---7---7---|
A|------7---------------7---|------7---------------|
E|----------5---5---5-------|----------------------|

    e   e   q   q   q      e   e   q   q   q
G|----------------------|----------------------||
D|--6-------------------|----------8---8---8---||
A|------6---------------|------8---------------||
E|----------8---8---8---|--6-------------------||


-|Parte C1|-
     q   q   q   q      q   q   q   q
G||------------------|------------------||
D|*------------------|------------------*| x2
A|*------6-------6---|------8-------8---*|
E||--6-------6-------|--8-------8-------||

-|Parte C2|-
     q   q   q   e   e      q   q   q   e   e
G||----------------------|----------------------|
D||----------------------|----------------------|
A||------6-------6-------|------8-------8-------|
E||--6-------6-------6---|--8-------8-------8---|

    q   q   q   e   e      q   q   q   q      w
G|----------------------|------------------|------|
D|----------------------|------------------|------|
A|------6-------6-------|------8-------5---|--7---|
E|--6-------6-------6---|--8-------8-------|------|

##----------------------------------------##
||                ORDEN                   ||
##----------------------------------------##

Parte A1      0:14
Parte B1      0:43
Parte A2      0:55
Parte B2      1:24
Parte C1      1:49
Parte A2      1:55
Pausa         2:24
Parte C2      2:49

##----------------------------------------##
||             REFERENCIA                 ||
##----------------------------------------##
  w = redonda
  h = blanca         h. = blanca puntillada
  q = negra          q. = negra puntillada
  e = corchea        e. = corchea puntillada
Este fichero es trabajo propio de su transcriptor y representa su interpretación personal de la canción. El material contenido en esta página es
para exclusivo uso privado, por lo que se prohibe su reproducción o retransmisión, así como su uso para fines comerciales.

© LaCuerda.net · Aviso Legal · Privacidad