Tablatura para Bajo de los Prisioneros: Maldito Sudaca
Conexión · Inscripción
Letras y Acordes
Pantalla Completa
Imprimir
Versión Texto
Añadir Favorito
Otras Versiones

Mostrar Diagramas
Desfile Automático
Formato del Texto


los Prisioneros
Maldito Sudaca(BAJ)
calidad:
pris0222
AUTOR: Jorge González
ALBUM: La Cultura de la Basura (1987)
Enviado por Ignacio
Versos:
G|-----------------|-----------------|
D|-----------------|-----------------|
A|-0-------0---0-2-|-3-------3-5-3-2-|
E|-----0-----0-----|-----3-----------|

'No pongas tus manos en mi car':
G|-----------------|-----------------|
D|-0-0-0-0-0-------|---------2-------|
A|-----------0-----|-----2-------2---|
E|--------------2--|-0---------------|

La la laa...:
G|-----------------|-----------------|-----------------|-----------------|
D|-----------------|-----------------|-----------------|-----------------|
A|-----------------|-----------------|-----0-----------|-0-2-3-----------| 2x
E|-0-2-3-----------|-3-2-0-----------|-0-3-------------|-----------------|

G|-----------------|
D|-----------------|
A|-3---2-----------|
E|-----------------|

Eso es toda la canción. No es na' tan dificil.
Este fichero es trabajo propio de su transcriptor y representa su interpretación personal de la canción. El material contenido en esta página es
para exclusivo uso privado, por lo que se prohibe su reproducción o retransmisión, así como su uso para fines comerciales.
© LaCuerda.net · Aviso Legal · Privacidad