Tablatura para Bajo de los Prisioneros: Las sierras eléctricas
Conexión · Inscripción
Letras y Acordes
Pantalla Completa
Imprimir
Versión Texto
Añadir Favorito
Otras Versiones

Mostrar Diagramas
Desfile Automático
Formato del Texto


Las sierras eléctricas(BAJ)

los Prisioneros

calidad:
pris0184
AUTOR: Jorge González
ALBUM: Ni por la Razon, Ni por la Fuerza (1996)
Enviado por carlos
HOLAS  ES PERO KE LES GUSTE ESTA =LITO AL KE KOMO TOKA
EL  JORGE Y ESTA ES LA CANCIÓN MAS BKN DE LOS PRISIONEROS

 LAS SIERRAS ELECTRICAS CORTAN LAS MONEDAS...

1)-------------------------------------------
2)-------------------------------------------
3)-------------------------------------------
4)----5------------------------------------5-
                                                  X 4 VECES
  ...LIMPIAS Y SECRETAS DE LOS BANKOS
1)-------------------------------------------
2)-------------------------------------------
3)---------------------------------5--------5
4)-------------------------------------------

  NA NA NA NA NA NA NA NA NA NA NA NA

1)------------------------------------------
2)------------------------------------------      X VARIAS
3)------------------------------------------        VECES
4)-5---5---5---5---5---5---5---5---5---5---5
                      LADO(A)
  LAS SIERRAS ELECTRICAS CORTAN TUS MUÑECAS PARA
1)----------------------------------------------
2)----------------------------------------------
3)----------------------------------------------
4)------5-5-----------------0-----3----------5-5
                      LADO(B)
  ... TU SUELDO MISERABLE
1)------------------------------------------
2)------------------------------------------
3)---------------4--5-5----------4---5--5---
4)-----------6----------------6-------------
                                                  X 4 VECES
   PERO LUEGO UN ...
1)--------------------
2)--------------------      CONECTANDO CON EL
3)4-------------------         LADO (A)
4)--6------5--------5-

(DESPUES)

 AHAAAAAAAAAA ¡¡¡CORTEN¡¡¡

1)------------------------
2)------------------------
3)--4—5-5-5-5-55555555555-
4)6-----------------------

                   CORO

  NA NA NA NA NA NA NA NA NA NA NA NA NA
1)--------------------------------------
2)--------------------------------------   X 2 VECES
3)------------6--6-------4--4-----------
4)---5--5------------------------4--4---

¡¡¡CORTEN¡¡¡  ¡¡¡SIERRAS¡¡¡ ¡¡¡ELECTRICAS¡¡

1)--------------------------------------
2)--------------------------------------
3)--------------------------------------
4)----5--------------5---------------5--


1)---------------------------
2)---------------------------
3)---------------------------
4)-3-3-3-3-3-3---5-5-5-5-5-5-

LAS SIERRAS ELECTRICAS CORTAN LOS PAISES...

1)-------------------------------------
2)-------------------------------------
3)-------------------------------------                X 2
4)----5---------5------0---3----5------


8 TONELADAS DE MONEDAS 8 TONELADAS DE MANOS..

1)-------------------------------------
2)-------------------------------------
3)-------------------------------------
4)----5---------5------0---3----5------

AHAAAAAAAAAA ¡¡¡CORTEN¡¡¡

1)------------------------
2)------------------------
3)--4—5-5-5-5-55555555555-
4)-6----------------------

                   (CORO)

  NA NA NA NA NA NA NA NA NA NA NA NA NA
1)--------------------------------------
2)--------------------------------------   X 4 VECES
3)------------6--6-------4--4-----------
4)---5--5------------------------4--4---

  LAS SIERRAS ELECTRICAS CORTAN LAS MONEDAS.
1)------------------------------------------
2)------------------------------------------
3)--------------3---------------------3-----
4)---1---------------------1----------------
                                                  X 2 VECES
  EN LAS BOBEDAS FRIAS Y SECRETAS DE LOS BANKOS.
1)------------------------------------------
2)------------------------------------------
3)-----------------5------------------5-----
4)----3---------------------3---------------

SIERRAS¡¡¡¡¡¡¡¡¡¡ ELECTRICAS ¡¡¡¡¡¡¡¡¡¡
1)------------------------------------------
2)------------------------------------------
3)------------------------------------------
4)---5-5-5-5-5-5-5----7-7-7-7-7-7-7---------

   ¡¡¡CORTEN¡¡¡ ¡¡¡SIERRAS¡¡¡ ¡¡¡ELECTRICAS¡¡¡

        NO HAY BAJO X UN TIEMPO
      (DESPUES)
1)-------------------------
2)-------------------------
3)-------------------------
4)----3-3-3-3—5-5-5-5-5----


                       (CORO)

  NA NA NA NA NA NA NA NA NA NA NA NA NA
1)--------------------------------------
2)--------------------------------------   VARIAS VECES
3)------------6--6-------4--4-----------       HASTA
4)---5--5------------------------4--4---     EL FINAL

AHAAAAAAAAAAAAAA(FINAL)
1)----------
2)----------
3)----------
4)----5-----

 OJALA KE LES AYGA GUSTADO HA Y MAS BKN SALE SIN PUA
 AH Y X FAVOR DENME  CREDITOS Y NO SE OLVIDEN
 ALGUNA DUDA AMI CORREO MSM PRISIONERO_LOVE_18@HOT...
AH Y INTERCAMBIO MUSICA DE ¡¡¡¡¡LOS PRISIONEROS¡¡¡¡¡¡¡
Este fichero es trabajo propio de su transcriptor y representa su interpretación personal de la canción. El material contenido en esta página es
para exclusivo uso privado, por lo que se prohibe su reproducción o retransmisión, así como su uso para fines comerciales.

© LaCuerda.net · Aviso Legal · Privacidad