Tablatura para Guitarra de los Prisioneros: Las sierras eléctricas
Conexión · Inscripción
Letras y Acordes
Pantalla Completa
Imprimir
Versión Texto
Añadir Favorito
Otras Versiones

Mostrar Diagramas
Desfile Automático
Manipular Acordes
Formato del Texto


Las sierras eléctricas(TAB)

los Prisioneros

calidad:
pris0182
AUTOR: Jorge González
ALBUM: Ni por la Razon, Ni por la Fuerza (1996)
Enviado por Sergio
Intro:

1--8---3------8~------|---------12--8---|
2----------------10~--|-----------------|
3------7-9-11---------|--7-9-10------5--|
4---------------------|-----------------|
5---------------------|-----------------|
6---------------------|-----------------

Te tenemos aquí un disquito simpático,
Para ti muñeca que estás solita en tu casa.

A)Las sierras electricas.....


E--7-7-7-7-7--7-7-7-7-7--5-5-5--5--6-- B--8-8-8-8-8--8-8-8-8-8--7-7-7--7--7--
G--9-9-9-9-9--7-7-7-7-7--7-7-7--7--8--
D-------------------------------------
A-------------------------------------
E------------------------------------- Esta transcripcion no es mia la saque de un cancionero.
Este fichero es trabajo propio de su transcriptor y representa su interpretación personal de la canción. El material contenido en esta página es
para exclusivo uso privado, por lo que se prohibe su reproducción o retransmisión, así como su uso para fines comerciales.

© LaCuerda.net · Aviso Legal · Privacidad