Acordes de Guitarra » P »Priscilla Bueno » Way Maker (Tab)

Way Maker
Priscilla Bueno

Letras, Acordes y Tabs para Guitarra, Bajo y Ukulele

  • --------------------------------
    
    INTRO
    Gm | Eb | Bb | F | Gm7 |
    
    VERSO 1 (2x)
              D#             Bb          F         Gm7
    //Aquí estas Te vemos mover Te adorare Te adorare
            D#            Bb          F         Bb
    Aquí estas Obrando en mi Te adorare Te adorare //y te llamamos
    
    
    CORO
      Eb                        Bb
    //  Milagroso abres caminos cumples promesas
                    F                  Gm7 Bb
    luz en tinieblas  mi Dios así eres tú   //
    
    VERSO 2
            Eb                Bb           F         Gm7
    
  • Intro =  C# - G# - D# - Fm
    
    Melodia = ( D - F - G )   ( G - G - G - C - D )
    ( C# - F - C# - C )   ( C - D - C - C# - C - C# - C# )
    
    
    (Estrofa 1)
             C#           G#
    Aqui estas te vemos mover
              D#          Fm
    te adorare, te adorare
             C#             G#
    Aqui estas obrando en mi
              D#          Fm
    te adorare, te adorare
             C#           G#
    Aqui estas te vemos mover
              D#          Fm
    te adorare, te adorare
             C#             G#
    
  • Intro: D# A# F Gm
    
    Verso 1:
    
              D#           A#             F         Gm
    //Aquí estás te vemos mover, Te adoraré,Te adoraré;
             D#             A#          F         Gm
     Aquí estás obrando en mi, Te adoraré,Te adoraré. //(X2) y Te llamamos...
    
    
    Coro:
    
     D#                        A#
    //Milagroso, abres camino,cumples promesas, luz en tinieblas;
    F                 Gm
     Mi Dios así eres Tú. // (X2)
    
    Verso 2:
    
              D#                 A#          F          Gm
    
  • e|-----------------------------------------------------6~----- En esta parte
    B|-------------------3---3-------------------------6-8-------- el bend se
    G|--3-3~--5-br---------5-------------------3-5-5/7------------ hace un poco
    D|-------------3-----------5-3-5~--3~--3-5-------------------- despues de
    A|------------------------------------------------------------ tocar la
    E|------------------------------------------------------------ nota
    
    e|--6/8-10---------------------------------------------------------
    B|---------8/10----------------------------------------------------
    G|--------------7h8-10-8-7----8p7------------------------7-10~-----
    D|-------------------------10-----10-8-10-8---------8-10-----------
    A|------------------------------------------10-8-10----------------
    E|-----------------------------------------------------------------
    
    e|-----------------------------------------------------------------
    B|-----------------------------------------------------------------
    G|--10/15--15p14-12-15p14-12-15p14-12-15p14-12-10~-----------------
    D|-----------------------------------------------------------------
    A|-----------------------------------------------------------------
    E|-----------------------------------------------------------------
    
  • +
    ¡Colabora con nosotros!
    Envíanos tu versión de esta canción
  • Tutorial
    Aqui estas Way maker tutorial con guitarra
    5:50

Letra de Way Maker
Gm | Eb | Bb | F | Gm7 |
VERSO 1 (2x)
//Aquí estas Te vemos mover Te adorare Te adorare
Aquí estas Obrando en mi Te adorare Te adorare //y te llamamos
// Milagroso abres caminos cumples promesas
luz en tinieblas mi Dios así eres tú //
VERSO 2
Aquí estas tocando mi corazón te adorare te adorare.
Aquí estas tocando mi corazón
Te adorare te adorare. te llamamos
VERSO 2
Aquí estas tocando mi corazón te adorare te adorare.
Aquí estas tocando mi corazón
Te adorare te adorare. hoy y siempre te llamamos
//Así eres tu, así eres tu, así eres tú, así eres tú//
// Aunque no pueda ver estas obrando
Aunque no pueda ver estas obrando
Siempre estas, siempre estas obrando
Siempre estas, siempre estas obrando// X4
SIMBOLOGIA:
- - - - = Representa un tiempo cada linea.
| = Representa una barra de compas.
(1v) o (2v) = Primera o segunda ves de un verso
Con un cambio en la segunda ves.
(2x) o (4x) = Representa las veces que se repetirá
toda la parte donde este colocado.
Te invito a seguirme desde mi pagina oficial
donde todos los días comparto acordes y
partituras gratis!
facebook.com/juanlopezmusica

Video de Way Maker
[]




[Way Maker chords][Way Maker cifra]
© LaCuerda.net · aviso legal · privacidad · es · en · pt · contacto