Acordes de Guitarra » P »Porter » No te encuentro (Tab)

No te encuentro
Porter

Letras, Acordes y Tabs para Guitarra, Bajo y Ukulele

  • Bueno esta cancion es una de mis primeras transcripciones
    esta facil espero les guste y a mis hermanos de la banda en la q toco
    (bolaños, dany, javi, miky).
    
    intro
    G------------------------------------------|
    D-----------------5------------------------|
    A-----6-----6---6-------3-----3---3-5------|
    E-8-8---8-8---8-----4-4---4-4---4----------|
    
    esta es la base de la cancion
    
    (hoy ya no estas....)
    G------------------------------------------|
    D-----------------5------------------------|
    A-----6-----6---6-------3-----3---3-5------|
    E-8-8---8-8---8-----4-4---4-4---4----------|
    
    (y no te encuentro y no te entiendo..)
    G-------------------------------------------------|
    D-------------------------------------------------|
    A-------------88888-8888-------------88888-8888---|
    E-66666-66666------------66666-66666--------------|
    
    (hay no se q paso...)
    G------------------------------------------|
    D-----------------5------------------------|
    A-----6-----6---6-------3-----3---3-5------|
    E-8-8---8-8---8
  • +
    ¡Colabora con nosotros!
    Envíanos tu versión de esta canción






[No te encuentro chords][No te encuentro cifra]
© LaCuerda.net · aviso legal · privacidad · es · en · pt · contacto