Acordes de Guitarra » P »Pop Corn » Sin Dudar (Tab)

Sin Dudar
Pop Corn

Letras, Acordes y Tabs para Guitarra, Bajo y Ukulele

  • E|------------------------------|
    B|------------------------------|
    G|-77777777777777---------------|
    D|-77777777777777---------------|
    A|-55555555555555-(PICK SLIDE)--|
    E|------------------------------|
    
    E|-----------------------------------|
    B|-----------------------------------|
    G|-----------------------77-6--66-7--|
    D|-----------------------77-6--66-7--|
    A|-9-7-6-7-6-44-------6--55-4--44-5--|
    E|--------------4f^-4----------------|
    
    D5                             C#5
    Hoy despues de noches sin dormir
                             D5
    Teniendo siempre que fingir
                             E5
    Con que las cosas estan bien y continuar
    
  • +
    ¡Colabora con nosotros!
    Envíanos tu versión de esta canción

Letra de Sin Dudar
Hoy despues de noches sin dormir
Teniendo siempre que fingir
Con que las cosas estan bien y continuar
Sin causa alguna, sin mirar
Estando ciego al caminar
Paso a paso entiendo
RIFF 1:
Que tengo que vivir
Sintiendo mas por mi
Soy conciente que debo seguir
Mirando atrás quiero partir
Engañando al corazón ya sin latir
Renunciando a lo que fuí
Mis ojos sienten mi dolor Lagrimas negras
Entregar
sin dudar
lo que soy
No equivocarme mas
No dar un paso atrás
No negar mi verdad
RIFF 1:
Que tengo que vivir
Sintiendo mas por mi
*** ***
************
Na na nana na na na
Na na nana na na na
ACORDES:




[Sin Dudar chords][Sin Dudar cifra]
© LaCuerda.net · aviso legal · privacidad · es · en · pt · contacto
DINAMICO