Acordes de Guitarra » P »Pop Corn » Septiembre (Tab)

Septiembre
Pop Corn

Letras, Acordes y Tabs para Guitarra, Bajo y Ukulele

  • e|-----X-----X-----X----|
    B|-----X-----X-----X----|
    G|-----X-----11----9----|
    D|-----9-----11----9----|
    A|-----9-----9-----7----|
    E|-----7-----X-----X----|
           B5   F#5    E5
    
    * = palm mute
    -------------------------
    
    INTRO:
    e|---------------|------------------------|
    B|------------X7-|------------------------|
    G|---------------|------------------------|
    D|---------------|------------------------|
    A|-----999-777-7-|-----999-777-7--6-7-6---|
    E|-777-----------|-777------------------7-|
    
               B5                  F#5
    
  • +
    ¡Colabora con nosotros!
    Envíanos tu versión de esta canción

Letra de Septiembre
* = palm mute
Es un nuevo día otra vez miro al cielo
Aún estoy solo pero tengo,
Ganas de respirar sentirme vivo,
Aunque no haga lo que quiera y no tenga lo que espero.
** *** ** ***** ** *** ** *****
* * * * * * * * * * * * ** *** * * * * * * *
(Guitarra acustica que tambien acompaña el verso)
Mis noches se hunden en llanto,
Y mis días son una luz de espera,
Me rehúso a aceptar pero no hay una salida,
No sé si te pueda amar, odiar.
Mis miradas son lágrimas que se agotan,
Con cada instante de tiempo,
Un intento más se convierte,
En una frustración peor.
** *** ** ***** ** ** **
** *** ** ***** * * * * * *
(Piano)
"El final me lleva por un camino..."
DUDAS, COMENTARIOS, CORRECCIONES Y OTRAS CANCIONES DE GRUPOS COLOMBIANOS
ESCRINME AL CORREO ROCKANDRES182@HOTMAIL.COM




[Septiembre chords][Septiembre cifra]
© LaCuerda.net · aviso legal · privacidad · es · en · pt · contacto
DINAMICO