Acordes de Guitarra » P »La Polla Records » Sin escrúpulos (Tab)

Sin escrúpulos
La Polla Records

Letras, Acordes y Tabs para Guitarra, Bajo y Ukulele

  • Aki os dejo esta gran kanción del ultimo de la polla:
    
    
    RIFF 1
    
    E.--------------------------------------------------------------------------------------------
    B.--------------------------------------------------------------------------------------------
    G.--------------------------------------------------------------------------------------------
    D.--------------------------------------------------------------------------------------------
    A.----5---------------3----5---------------3---5---------------3---5---------------3----------
    E.----3---3---3---3---1----3---3---3---3---1---3---3---3---3---1---3---3---3---3---1----------
    
    RIFF 2
    
    E.-------------------------------------------------------------------------------------------
    B.-------------------------------------------------------------------------------------------
    G.-----7-----------7----------7----------7---------------------------------------------------
    D.-----7-----5-----7-----5----7----5-----7-----5---------
  • +
    ¡Colabora con nosotros!
    Envíanos tu versión de esta canción






[Sin escrúpulos chords][Sin escrúpulos cifra]
© LaCuerda.net · aviso legal · privacidad · es · en · pt · contacto
DINAMICO