Acordes de Guitarra » P »La Polla Records » El ojo te vé (Tab)

El ojo te vé
La Polla Records

Letras, Acordes y Tabs para Guitarra, Bajo y Ukulele

  •  SOL#5  SI5  MI5  DO#5
    
     SOL#5                SI5       MI5            DO#5
     En el banco y en la estación  escondidas en la eskina
     SOL#5         SI5          MI5           DO#5
     en el centro de la ciudad  en las calles de negocios
     SOL#5          SI5            MI5           DO#5
     A tu espalda o frente a ti  se despliegan en silencio
     SOL#5        SI5               MI5                DO#5
     serás un gran artista   a menos que tengas buena vista
     SOL#5        SI5            MI5        DO#5
     serás un paranoico  si kieres intimidar
    
     SOL#5        SI5             MI5       DO#5
     una cama accidental grabó el asesinato
     SOL#5                SI5         MI5             DO#5
     vean como al atracador le revientan la cabeza
     SOL#5        SI5         MI5             DO#5
     te escondes con tu amante y una camara lo filma
     SOL#5          SI5       MI5               DO#5
    
  •                             el ojo te ve
    NOTA:
    
    Espero y te ayude en algo esta tab.
    Si necesitas una tab en especial, escríbeme o visita...
    
    *******************************************
    * http://www.myspace.com/alejandrolauyola *
    *******************************************
    
    - Revisa la afinación
    - Pon atención a las instrucciones que están al final
    - contiene las 2 guitarras
    - CALIFICA SOLO SI LEÍSTE "EL MANUAL"-
    
    ------------Guitarra 1---------------------
    
         TP       TP          TP       TP            TP       TP
         H        H           H        H             H        H
    E||--------------------|---------------------||--------------------|
    B||--------------------|---------------------||--------------------|
    G||-----------4--------|-----------6--------*||-----------4--------|
    D||--6--------4--------|--2--------6--------*||--6--------4--------|
    A||--6--------2--------|--2--------4---------||--6--------2--------|
    E||--4-----------------|--0------------------||--4-----------------
  •                             el ojo te ve
    
    NOTA:
    
    Espero y te ayude en algo esta tab.
    
    Si necesitas una tab en especial, escríbeme o visita...
    
    http://www.myspace.com/alejandrolauyola
    
    
                           E  Q.     H
    G||-------|--------||---------------------|-------|
    D||-------|-------*||---------------------|-------|
    A||-------|-------*||------------2--------|-------|
    E||-------|--------||--4--4---------------|-------|
    
    
                                      TP       TP
      E  Q.     H                     H        H
    ---------------------|-------||---------------------|
    ---------------------|-------||*--------------------|
    ------------2--------|-------||*-----------2--------|
    --4--4---------------|-------||---4-----------------|
    
    
      TP       TP
      H        H             E  Q.     E  Q.        E  Q.     E  Q.
    ---------------------||----------------------|----------------------|
    --------------------*||----------------------|----------------------|
    -----------4--------*||------------2--2---
  • +
    ¡Colabora con nosotros!
    Envíanos tu versión de esta canción

Letra de El ojo te vé
En el banco y en la estación escondidas en la eskina
en el centro de la ciudad en las calles de negocios
A tu espalda o frente a ti se despliegan en silencio
serás un gran artista a menos que tengas buena vista
serás un paranoico si kieres intimidar
una cama accidental grabó el asesinato
vean como al atracador le revientan la cabeza
te escondes con tu amante y una camara lo filma
te arrastras las pelotas y lo graba algun idiota
el resto de la canción y el estribillo es igual aunque en
los solos quiza mete algun
acorde mas.




[El ojo te vé chords][El ojo te vé cifra]
© LaCuerda.net · aviso legal · privacidad · es · en · pt · contacto
DINAMICO