Acordes de Guitarra » P »La Polla Records » Así es la vida (Tab)

Así es la vida
La Polla Records

Letras, Acordes y Tabs para Guitarra, Bajo y Ukulele

  • RE5  SOL5
    
    Parte 2:
    
    DO#5 RE5  DO#5 RE5  DO#5 RE5
    
    
    
    Parte 1:
    
    La miseria feroz ha tomado las calles,
    la avaricia se folla a la libertad,
    los débiles gimen mientras los aplastan,
    sus quejas son olvidadas.
    
    Parte 2:
    
    Estamos saliendo de la situación
    y vamos a darle pronta solución,
    y ahora yo me doy la vuelta,
    
  • Empieza la guitarra acompañada con el bajo que hace esto:
    
    G------------------------
    D------------------------
    A----5----5----5----5----
    E------------------------
    
    _______________________________________________________________________
    
    Luego entra esta parte, que cuando venga el estribillo será esto mismo:
    
    G--------------------------------------------------
    D--------------------------------------------------
    A----5--5--------5--5--------5--5--------5--5------
    E----------3--3--------3--3--------3--3--------3--3
    
    G--------------------------------------------------
    D--------------------------------------------------
    A----5--5--------5--5--------5--5--------5--5--5--5
    E----------3--3--------3--3--------3--3------------
    
    _______________________________________________________________________
    
    Y ahora la parte de la estrofa:
    
    G--------------------------
    D--------------------------
    A--5-5-4-4-5-5-4-4-5--4-5--
    E-------------------------- x2
    
    G-----------------------------------------------
  • +
    ¡Colabora con nosotros!
    Envíanos tu versión de esta canción

Letra de Así es la vida
Parte 2:
Parte 1:
La miseria feroz ha tomado las calles,
la avaricia se folla a la libertad,
los débiles gimen mientras los aplastan,
sus quejas son olvidadas.
Parte 2:
Estamos saliendo de la situación
y vamos a darle pronta solución,
y ahora yo me doy la vuelta,
y al salir cerrad la puerta.
Parte 1:
¿Qué podemos decir?, dice la mayoría.
¿Qué le vamos a hacer si no hay solución?
No queremos saber, no hay ninguna salida.
A ver qué dicen de arriba.
Parte 2:
Un poco de calma, tan grave no es,
hagan otro esfuerzo hasta fin de mes.
Mientras tanto, yo contento
con mamar del presupuesto.
Parte 1:
Os jodéis y os calláis (así es la vida).
No sé de qué os quejáis (así es la vida).
¿Qué cojones queréis? (así es la vida).
¡Me estáis manchando la alfombra!
En el solo se escucha la parte 2; luego únicamente
La5, y después la parte 1.
Parte 2:
Duro inconformista sin civilizar,
ven a nuestros brazos, déjate domar.
Si eres joven y rebelde,
Coca Cola te comprende.
Parte 1:
Y los ricos se agrupan en la lucha final
mientras van cantando su Internacional.
Le pasan a Dios su tanto por ciento
y el mundo es una bomba de tiempo.
Así, así, así es la vida.
Así, así, así es la vida.
Así es la vida, así es la vida,
te puedes acatarrar.




[Así es la vida chords][Así es la vida cifra]
© LaCuerda.net · aviso legal · privacidad · es · en · pt · contacto
DINAMICO