Tablatura para Bajo de los Piojos: Pensar en nada
Conexión · Inscripción
Letras y Acordes
Pantalla Completa
Imprimir
Versión Texto
Añadir Favorito
Otras Versiones

Mostrar Diagramas
Desfile Automático
Formato del Texto


Pensar en nada(BAJ)

los Piojos

calidad:
pioj0633
AUTOR: Leon Gieco
ALBUM: Huracanes en la Luna Plateada (2002)
Enviado por martin
intro despues de la 1° guitarra 

G--------------------------
D--------------------------       Intro 
A--5-55--55-5--------------       y todo el 
E-------------1-3----------       tema igual

G----------------------------------------------
D---------------------------------------------- Escribillo
A--------------------------5(x14)----5(x14)----
E--5(x16)--1(x16)--5(x12)----5(x14)----5(x14)-- 


G--------------------------  va despues del escribillo
D--------------------------      
A--5-55--55-5-------------- 
E-------------1-3----------


G-------------------------- 
D--------------------------    despues esto    
A--5-55--55-5--------------       
E-------------3-1----------


DESPUES HASTA EL FINAL IGUAL QUE EL PRINCIPIO

Esto es para el gil de mi hermano
Este fichero es trabajo propio de su transcriptor y representa su interpretación personal de la canción. El material contenido en esta página es
para exclusivo uso privado, por lo que se prohibe su reproducción o retransmisión, así como su uso para fines comerciales.

© LaCuerda.net · Aviso Legal · Privacidad