Acordes de Guitarra » P »Pibes Chorros » El Prisionero (Tab)

El Prisionero
Pibes Chorros

Letras, Acordes y Tabs para Guitarra, Bajo y Ukulele

  • Am              E7
    Sus amigos y parientes
    
            Am
    hoy lo van a visitar
    
                        E7 
    hace sólo un par de meses 
    
             Am
    que está preso por robar
    
    A          A7        Dm
    El se enamoró perdidamente
    
                        Am
    sin pensar que lentamente,
    
                        E7 
    sin pensar que lentamente,
    
  • Fm
    Fm     C#        C           Fm
    Sus amigos y parientes hoy lo van a visitar
    Fm       C#         C               Fm
    hace sólo un par de meses que está preso por robar.
    F7                  Bbm                          Fm
    El se enamoró perdidamente, sin pensar que lentamente
                           C                          Fm
    sin pensar que lentamente, su vida se iba a arruinar.
    
    1 |---------13-13----------------13-13-13-|----13-------------------------
    2 |------11-------11-13-14-11-13----------|--11--14-13-----11-13----11-13-
    3 |---------------------------------------|-------------10-------10-------
    4 |---------------------------------------|-------------------------------
    5 |---------------------------------------|-------------------------------
    6 |---------------------------------------|-------------------------------
    
    1 --------------------|----12-12-12--12s15--13-----11--|
    2 -13-13--13s14s13-13-|-13-----------------------------|
    3 --------------------|--------------------------------|
    
  • +
    ¡Colabora con nosotros!
    Envíanos tu versión de esta canción

Letra de El Prisionero
Sus amigos y parientes
hoy lo van a visitar
hace sólo un par de meses
que está preso por robar
El se enamoró perdidamente
sin pensar que lentamente,
sin pensar que lentamente,
su vida se iba a arruinar.
Blanca y pura era la dama
que su vida controló,
comenzó así la locura,
comenzó el descontrol,
Ella le hizo perder la cabeza
de la noche a la mañana,
de la noche a la mañana,
arruinó su libertad.
Tarde si dió cuenta,
que le mentía,
que era falsa su alegría
que ella siempre lo engañó.
sólo lo dejó triste y enfermo,
condenado como un perro
a sufrir en la prisión.




[El Prisionero chords][El Prisionero cifra]
© LaCuerda.net · aviso legal · privacidad · es · en · pt · contacto
DINAMICO