Acordes de Guitarra » P »Peteco Carabajal » Que más se puede pedir (Tab)

Que más se puede pedir
Peteco Carabajal

Letras, Acordes y Tabs para Guitarra, Bajo y Ukulele

  • 1|--7-7---6-6--9-9-7-7-
    2|---------------------
    3|-7-----6-----9-----7--
    
    1|---10-10---9-9----12-10--10-
    2|----------------------------
    3|11-------9-----12------10---
    
    1|--7-7---6-6--9-9-7-7----10--9--7-
    2|---------------------------------
    3|7-----6-----9-----7---11---9-7---
    
    2da guitara (ritmo):
    
    FA#7 / SIm (x4)
    
    
    RE
    Quisiera ser en el río
    
    
  •    LA
    QUISIERA SER EN RIO
    
    BLANCA ESPUMA SOLAMENTE
        RE
    MECERME EN BRAZOS AJENOS
        MI7              LA
    DESHASERME EN LA CORRIENTE
    
    - - - - - - - - - - - - -
    
    SER AGUA DENTRO EL ALGIBE
    
    PARA ESTAR SIEMPRE FRESQUITA
    
    COPLITA DE CHACARERA
    
    LAMENTO DE VIDALITA
    
    - - - - - - - - - - - - - -
    
  • +
    ¡Colabora con nosotros!
    Envíanos tu versión de esta canción

Letra de Que más se puede pedir
QUISIERA SER EN RIO
BLANCA ESPUMA SOLAMENTE
MECERME EN BRAZOS AJENOS
DESHASERME EN LA CORRIENTE
- - - - - - - - - - - - -
SER AGUA DENTRO EL ALGIBE
PARA ESTAR SIEMPRE FRESQUITA
COPLITA DE CHACARERA
LAMENTO DE VIDALITA
- - - - - - - - - - - - - -
ANDARME POR LAS ALTURAS
BARRIENDO NUBES DEL CIELO
Y COMO SOMBRA PASAR
SIN DEJAR RASTRO EN EL CIELO
ESTRIBILLO
Y PARA SER MAS COMPLETO
QUE MAS SE PUEDE PEDIR
TENER UN CAMPO EN EL CIELO
SEMBRANDO ESTRELLAS VIVIR
- - - - - - - - - - - - -
QUISIERA SER UN QUIMIL
RUGOSO Y ESPINA DURA
ASI NADIE ME SACUDA
BUSCANDO FRUTA MADURA
- - - - - - - - - - - - -
YO QUISIERA QUE ME TOMEN
CON DOS DEDOS SOLAMENTE
Y ME TOQUEN DESPACITO
COMO A BOMBILLA CALIENTE
- - - - - - - - - - - -
SER UNA FRUTA JUGOSA
DE PELIGRO COMO TUNA
DE PELARLA CON CUIDADO
Y DE COMER NADA MAS QUE UNA
esta es mi tercera transcripccion se la dedico a mi esposa cintia zuleta




[Que más se puede pedir chords][Que más se puede pedir cifra]
© LaCuerda.net · aviso legal · privacidad · es · en · pt · contacto
DINAMICO