Acordes de Guitarra » P »Peteco Carabajal » Puente Carretero (Tab)

Puente Carretero
Peteco Carabajal

Letras, Acordes y Tabs para Guitarra, Bajo y Ukulele

  •        MI           LA           MI               LA
    1|-----12---12---10-9------9---9------------------------------------------------
    2|---9------------------10-------12----9-12--9-12-10----------------------------
    3|-9------9----9------9------9-------9------------------------------------------
    4|------------------------------------------------------------------------------
    5|------------------------------------------------------------------------------
    6|------------------------------------------------------------------------------
    
    
    
           LA7           RE 
    Si pasas por mi provincia
                        LA
    con tu familia viajero
                           SI            
    veras que lindo es el río
                 MI7       LA
    desde el Puente Carretero.
    
    Introducción
    
  • 1|------5--5-3-2--3-2-0--2-0--------
    2|---------------------------3------
    3|-2-2------------------------------
    4|---------------------------------- [ se repite dos veces
    5|----------------------------------
    6|----------------------------------
    
    acompañamiento:
    
    Re La7 Re [ se repite dos veces
    
    
           RE          SOL
    Si pasas por mi provincia
                        RE
    con tu familia viajero
                         LA7
    veras que lindo es el río
                        RE
    desde el Puente Carretero.
    
  • +
    ¡Colabora con nosotros!
    Envíanos tu versión de esta canción

Letra de Puente Carretero
Si pasas por mi provincia
con tu familia viajero
veras que lindo es el río
desde el Puente Carretero.
Introducción
Es cuna de mil recuerdos
de amores y de nostalgias
corazón entrelazado
entre Santiago y La Banda.
Introducción
Será el Puente Carretero
que va cortando caminos
para llegar a los brazos
donde me espera un cariño.
Encontrarás en mi tierra
cantores de salamanca
para que nunca te olvides
aromas a Santiago manta.
Introducción
Por nada olvides viajero
lo que sienten mis paisanos
seguro te han de querer
como se quiere a un hermano.
Introducción
Y cuando llega la noche
te pasas mirando el río
seguro que algún dorado
se besa con el rocío.
Introducción
Coplitas que van naciendo
de mi corazón travieso
me hacen cosquilla en el alma
cuando se agranda el silencio.
Encontrarás en mi tierra ...




[Puente Carretero chords][Puente Carretero cifra]
© LaCuerda.net · aviso legal · privacidad · es · en · pt · contacto