Acordes de Guitarra » P »Perro Ciego » Perro Ciego (Tab)

Perro Ciego
Perro Ciego

Letras, Acordes y Tabs para Guitarra, Bajo y Ukulele

  • Intro: A E G D
    
    A        E
      Imaginé llegar al cielo
    G                          D
      cegado por mis ilusiones
    A           E
      Tenía todo lo que quería
    G                         D
      sin saber lo que buscaba
    
    A E G D
    
    Pude recorrer castillos de colores
    ventanas de cristal
    Luego desperté con la botella en la mano
    y mi guitarra desafinada
    
    C                             G
      Y ahora estoy tirado en la calle
    
  • Hola a todos!!!
    Esta es la parte del comienzo de la canción
    Esta bastante bien
    Todavía no saque el punteo del medio
    Aguante Perro loco y Rosario!!!
    
    E|--------------------9----------------------------------------------|
    B|------10v--10----10---10----12v--12p10------12p10----10v--10----9v-|
    G|-9-11---------11---------11------------12v--------12---------12----|
    D|-------------------------------------------------------------------|
    A|-------------------------------------------------------------------|
    E|-------------------------------------------------------------------|
    
    E|-------------------------------------------------------------------|
    B|--10-10/9---9-9/7—--7-7/5---5-5/3---3-3/1---1-1/3---5--------------|
    G|-------------------------------------------------------5v----------|
    D|-------------------------------------------------------------------|
    A|-------------------------------------------------------------------|
    E|----------------------------------------------------------------
  • bueno aca esta este temita para que se diviertan nose si estara
    bien pero hice el intento aguante perro y la osisa rnr
    
    e--------------------------------------------------------------
    b-----------------14-12--12v--12p10--12-10-8-10v-10p8----------
    g--9-11-14v--14-11-----14----------12----------------9---------
    D--------------------------------------------------------------
    A--------------------------------------------------------------
    E--------------------------------------------------------------
    
    e---------------------------------------------------------
    b---8/7-7/5-5/3-3/1-3-------------------------------------
    g---------------------------------------------------------
    D--10/9-9/7-7/5-5/3-4-------------------------------------
    A---------------------------------------------------------
    E---------------------------------------------------------
    /ligado
    v hacer vibrar la cuerda
    si tienen dudas escuchen el tema
  • +
    ¡Colabora con nosotros!
    Envíanos tu versión de esta canción

Letra de Perro Ciego
Imaginé llegar al cielo
cegado por mis ilusiones
Tenía todo lo que quería
sin saber lo que buscaba
Pude recorrer castillos de colores
ventanas de cristal
Luego desperté con la botella en la mano
y mi guitarra desafinada
Y ahora estoy tirado en la calle
como un perro ciego ladrando mi realidad
Yo sé que un día cuando ya no estés
mis canciones se escucharán
Y ahora estoy tirado en la calle
como un perro ciego ladrando mi realidad
Yo sé que un día cuando ya no estés
mis canciones se escucharán
Para todos los que le gusta Perro che!!!!
Se lo dedico a una gran amiga rollinga de Salta, Adriana Rodo
AGUANTE EL ROCANROL
PUNTA ALTA (Bs As)
________________Aníbal#87 rnr




[Perro Ciego chords][Perro Ciego cifra]
© LaCuerda.net · aviso legal · privacidad · es · en · pt · contacto
DINAMICO