Tablatura para Bajo de Perro Callejero: Yo quiero ser
Conexión · Inscripción
Letras y Acordes
Pantalla Completa
Imprimir
Versión Texto
Añadir Favorito
Otras Versiones

Mostrar Diagramas
Desfile Automático
Formato del Texto


Yo quiero ser(BAJ)

Perro Callejero

calidad:
pcal0053
AUTOR: Israel Gabriel Tejeda Juarez
ALBUM: Aullido (2006)
Enviado por Tadeo
INTRO
G|-------------------------------|
D|-------------------------------|
A|--------------0-5-0-7-0--------|
E|-----------------------7-5-0---|

G|-------------------------------|
D|-------------------------------|
A|--------------0-7-0-5-0--------|
E|-----------------------7-5-0---|

G|-------------------------------|
D|-------------------------------|
A|-------------------------------|
E|--------------0-7-0-5-0-3-0-5--|

G|-------------------------------|
D|-------------------------------|
A|--------------0-5-0-7-0--------|
E|-----------------------7-5-0---|

A nadie extraña ya...
G|-----------------------|  |--------------| |
D|----------------------.|X2|--------------|.|ESTA ESTROFA
A|----4...0...2...4...--.|  |0...2...------|.|
E|0...-------------------|  |--------0...--| |TODOX2

Contigo platicar...
G|----------------------------|
D|----------------------------|
A|4...------------------------|
E|----4...2...3-2-1-0-3-2-1-0-|

(Coro)
yo quiero ser...
G|------------------------|  |----------------|OJO...
D|-----------------------.|X2|----------------| LA 2a PARTE
A|----4...2...0...2...---.|  |2-4-6-7-2-4-6-7-| SE LE OMITE
E|0...--------------------|  |----------------| EL ULTIMO 2...

(Solo1)
G|---------------------|
D|---------------------|
A|----4...2...0...2...-|
E|0...-----------------|

Una mañana mas...= el verso(A nadie extraña ya...)
contigo platicar...
yo quiero ser...
(solo2)
G|---------------------------------|
D|--------------------------------.|X2
A|----4...2...0...2-4-6-7-7-6-4-2-.|
E|0...-----------------------------|

yo quiero ser...
G|------------------------|
D|-----------------------.|X2
A|----5...3...1...3...---.|
E|1...--------------------|

G|------------|
D|-------3-3-.|X3
A|------3----.|
E|1...--------|

esta es para ARACELI mu incondicional
Este fichero es trabajo propio de su transcriptor y representa su interpretación personal de la canción. El material contenido en esta página es
para exclusivo uso privado, por lo que se prohibe su reproducción o retransmisión, así como su uso para fines comerciales.

© LaCuerda.net · Aviso Legal · Privacidad