Acordes de Guitarra » P »Pereza » Tristeza (Tab)

Tristeza
Pereza

Letras, Acordes y Tabs para Guitarra, Bajo y Ukulele

  •         C                Em              B                 Em
    |----------------|---------------|---------------|----------------|
    |----------------|---------------|---------------|----------------|
    |--12--9------9--|--12--9-----9--|--11--8-----8--|--12-91112119---|
    |---------10-----|---------9-----|---------9-----|----9--------9--|
    |----------------|---------------|---------------|----------------|
    |----------------|---------------|---------------|----------------|
    
            C               Em               B                 D
    |----------------|---------------|---------------|----------------|
    |----------------|---------------|---------------|----------------|
    |--12--9------9--|--12--9-----9--|--11--8-----8--|--11--8--12--9--|
    |---------10-----|---------9-----|---------9-----|----------------|
    |----------------|---------------|---------------|----------------|
    |----------------|---------------|---------------|----------------|
    
    
    Tocándola en quintas suena como tendría que ser. Yo voy a poner
    simplemente los acordes encima de la letra...
    
    
  • +
    ¡Colabora con nosotros!
    Envíanos tu versión de esta canción

Letra de Tristeza
Tocándola en quintas suena como tendría que ser. Yo voy a poner
simplemente los acordes encima de la letra...
Verse:
No necesito velocidad, solo mas viento,surfear,
la ola que nos sacudió y nos escondió en algún mar,
con esto tiempo cualquiera esta en el momento en el lugar,
siempre soñamos que vuelva a pasar y yo,
que no ocurra mas.
Estribillo:
Cuando te tengo cerca algo en mi se aleja,
de nuevo esa tristeza que rompe en mi cabeza,
(aquí entra una 2ª guitarra tocando el intro con alguna variación..)
que rompe en mi cabeza,
de nuevo esa tristeza,
que rompe en mi cabeza,
de nuevo esa tristeza.
Verse:
No necesito mediocridad,
no quiero armas,no quiero paz
ni mas escenas en la puerta de algun bar,vale ya.
Si me permito desafiar
cuando me salga,cuando te va
nunca pensamos que fuera acabar,
y hoy como pudo empezar
Estribillo:
Cuando te tengo cerca algo en mi se aleja,
de nuevo esa tristeza que rompe en mi cabeza,
que rompe en mi cabeza,
de nuevo esa tristeza,
que rompe en mi cabeza,
Bridge:
Aaaaaaaaaaaaaaaaaaaaaaaaaaaa
Outro:
Cuando te tengo cerca algo en mi se aleja,
de nuevo esa tristeza que rompe en mi cabeza,
(aquí la estructura para la 2ª guitarra es la misma que en el Intro,
pero adaptándola a los acordes correspondientes, que no es difícil)
que rompe en mi cabeza,
de nuevo esa tristeza,
que rompe en mi cabeza,
de nuevo esa tristezaaaaa.




[Tristeza chords][Tristeza cifra]
© LaCuerda.net · aviso legal · privacidad · es · en · pt · contacto
DINAMICO