Acordes de Guitarra » P »Pereza » La Naranja (Tab)

La Naranja
Pereza

Letras, Acordes y Tabs para Guitarra, Bajo y Ukulele

  • E:-----------------------------------------------
    B:-----------------------------------------------
    G:-----------------------------------------------
    D:---5---------3-5-------------------------------
    A:-----5-3---6------------------------3-1--------
    E:---------6-------1-3--3-3-3-1-3-4-4------------
    Y:
    E:-----------------------------------------------
    B:-----------------------------------------------
    G:-----------------------------------------------
    D:---5---------3-5--5-5-5-3-5-6------------------
    A:-----5-3---6-----------------------------------
    E:---------6-------------------------------------
    
    Intro: DOm SOL# SOL SOL# x2
    
    DOm                SOL#            SOL
    Y exprimiendo hasta la última gota
                    SOL#
    De la naranja seca de la ilusión
    
  • +
    ¡Colabora con nosotros!
    Envíanos tu versión de esta canción

Letra de La Naranja
Y:
Y exprimiendo hasta la última gota
De la naranja seca de la ilusión
Cuando la noche se acaba y no se ha llegado a nada
Y ya sientes tu cuerpo en el colchón
Con la lengua rasposa y seca
Y los dedos de tu mano pitillera
teñidos de amarillo y pegajosos
de haber estado comiendote los mocos
pensando que esta no es la primera vez...
Agotadooo, tan agotado que estás
Y otra vez que se extiende
Tus arañas haciendo mella
En los pensamientos de siempre
En las ganas y en las fuerzas
Agotado, tan agotado que estás




[La Naranja chords][La Naranja cifra]
© LaCuerda.net · aviso legal · privacidad · es · en · pt · contacto
DINAMICO