Acordes de Guitarra » P »Pepe Calavera » Quien soy yo (Tab)

Quien soy yo
Pepe Calavera

Letras, Acordes y Tabs para Guitarra, Bajo y Ukulele

  • e--12---12---12---12---12---12---12---12-|
    B----------------------------------------|
    G----------------------------------------|   Continuar Hasta el
    D----------------------------------------|     primer verso…
    A----------------------------------------|
    E----------------------------------------|
    
    
     0:15    Am    F                Am      F
    e--------------------------------------------|
    B-----------1-------------------------1------|
    G--------2-------------------------2---------| Se repite a lo largo
    D--------------3------------------------3----|  de toda la canción…
    A-----0-------------------------0------------|
    E--------------------------------------------|
    
    
    0:34  Am…
    e----------------------------------------|
    B----------------------------------------|
    
  • +
    ¡Colabora con nosotros!
    Envíanos tu versión de esta canción

Letra de Quien soy yo
Verso 1

Soy quien te habla de amor en cada esquina
Soy un fanático un suicida
Soy la lluvia en la herida
Quien soy yo
Soy el mar mojando tus pies
Soy el trago, en tu mano
la foto añeja de tu pasado
quien soy yo…
[1:30, 2:20]
Soy la risa desdentada
Soy el arma soy la bala
Soy el puñal en tu espalda
Quien soy yo
Soy un profeta una mentira
Soy quien te piensa y luego se olvida
Soy la tumba llena de espinas
La otra cara la luz perdida
Quien soy yo
[Distorsión]

Soy quien se acuesta junto a tu cuerpo
Soy quien roba todos tus sueños
Soy la sangre en tus rodillas
La procesión, la pesadilla
Quien soy yo… X4
[3:30, 3:54]
[Fin]
Excelente canción de Pepe Calavera espero que la disfruten
Cualquier pregunta u observación a: munoz_pma@msn.com :)




[Quien soy yo chords][Quien soy yo cifra]
© LaCuerda.net · aviso legal · privacidad · es · en · pt · contacto
DINAMICO