Tablatura para Bajo de Pedro Suarez Vertiz: Cuéntame
Conexión · Inscripción
Letras y Acordes
Pantalla Completa
Imprimir
Versión Texto
Añadir Favorito
Otras Versiones

Mostrar Diagramas
Desfile Automático
Formato del Texto


Cuéntame(BAJ)

Pedro Suarez Vertiz

calidad:
psua0023
AUTOR: Pedro Suarez
ALBUM: desconocido
Enviado por Luis
INTRO:
G---------------------------------------------------------------
D---------------------------------------------------------------
A-3-3-3-30-00-05-5-5-5-52-22-2---------------------------------- x2
E---------------------------------------------------------------

CANTO:
G---------------------------------------------------------------
D---------------------------------------------------------------
A--------2-2-2-2--------------3-3-3-36-6-6-67-7-7-77-7-7-7----- x2
E-3-3-3-3-------0-0-0-01-1-1-1---------------------------------

CORO:
G---------------------------------------------------------------
D---------------------------------------------------------------
A-3-32-20-0-0-05-53-52-2-2-2------------------------------------ x2
E---------------------------------------------------------------

(REPITE CANTO)
(REPITE CORO x2)
(REPITE CANTO)

INTERLUDIO:
G-----------------
D-----------------
A-6-6-6-6--------- x4
E--------0-0-0-0--

G-------------------------------
D-------------------------------
A-5-5-5-55-5-5-55-5-5-55-5-5-5--
E-------------------------------

(REPITE CANTO)
(REPITE CORO x12)
Este fichero es trabajo propio de su transcriptor y representa su interpretación personal de la canción. El material contenido en esta página es
para exclusivo uso privado, por lo que se prohibe su reproducción o retransmisión, así como su uso para fines comerciales.

© LaCuerda.net · Aviso Legal · Privacidad