Acordes de Guitarra » P »Pedro Palacios » Un trago y una anécdota (Tab)

Un trago y una anécdota
Pedro Palacios

Letras, Acordes y Tabs para Guitarra, Bajo y Ukulele

  •            A                  F#m                 Bm
    E -5----5----5----------|-2-------2---------|----------------
    A ----------------------|-------------------|-2--------------
    D ---------------7------|-------------------|----------------
    G -6------------6-6----6|--2-----2---2------|--4---4---4---4-
    B -5-7-------7-5----5-5-|----2--2---2-------|---3-3---3---3--
    e ----5-9-7-5--------5--|-----2---3---2-----|----2---4---2---
    
         D       E
    
    E |--------|-0------0------0-
    A |--------|-----------------
    D |-0------|-----------------
    G |--2---2-|--1---1---1--1-1-
    B |--2---2-|--1---1---1--1-1-
    e |----2---|----0---2--0---0-
    
    
    A
    Tambien fui forastero alguna vez
    
  • +
    ¡Colabora con nosotros!
    Envíanos tu versión de esta canción

Letra de Un trago y una anécdota
Tambien fui forastero alguna vez
Y aun que no niego que lo disfrute
Aun sigo aqui pensando que lo mejor es volver
Sintiendo gran nostalgia de mi hogar
Con un amigo bueno eh de brindar
Un trago y anecdota contar
Ofreciendole mi casa y la comida de mama
Con hermanos que nnunca antes vi
Tan honestos como yo les fui
Entre abrazos y risas
Lagrimas y sonrisas
Esto es lo mas bello de la vida
Esto es lo que jamas se te olvida
Verte en el semblante de un amigo
Y mirar bajo sus cejas brillo de cinseridad
Y saber que no tiene motivos para siempre en ti confiar
Pues hay bastantes sentimientos por si acaso
Para poder perdonar intermedio con arpegio
Tantos amaneceres disfrute
Por cientos de ventanas me asome
Cuidades tan hermosas visite
comi cosas distintas y unas veces enferme
Y tantas serenatas que lleve
Mujeres tan hermosas que ronde
Tantas parrandas las que termine
Tocando la guitarra hasta que el sol llega otra vez
Puedes terminar con el arpegio del intro...
O pueden meter estos tonos:
Espero que les agrade y les sea útil




[Un trago y una anécdota chords][Un trago y una anécdota cifra]
© LaCuerda.net · aviso legal · privacidad · es · en · pt · contacto
DINAMICO