Acordes de Guitarra » P »Pedro Fernandez » La mujer que amas (Tab)

La mujer que amas
Pedro Fernandez

Letras, Acordes y Tabs para Guitarra, Bajo y Ukulele

  • D                    Bb
    Si sientes eque tus ojos
          Gm         A7
    se iluminan al mirar su cara
              F               C    Dm
    y el corazón tiembla de amor
           C           
    y te sacude los hilos del alma
            Gm
    es la señal de su llegada
            A7       G        D
    es sin duda la mujer que amas.
    
    
    Abre tus alas
                        A7
    dile que ya la esperabas
    
    dale tus sueños
                     D
    
  •        Bbmaj7    Gm        A7                   Bbmaj7     X1323X
    e-------------------------------------
    B----5h6p5----5-6-5----8-6-5h6p5---5--
    G--7--------7--------7-----------7----
    D-------------------------------------
    A-------------------------------------
    E-------------------------------------
    
                        Bb
    Si sientes que tus ojos,
        Gm           A7
    se iluminan, al mirar, su cara,
            F             C       Dm
    y el corazón, tiembla de amor,
           C
    y te sacude, los hilos del alma,
            Gm
    es la señal, de su llegada,
            A7        G         D
    es sin duda, la mujer, que amas.
    
  •  Gm6        Gm6*       Ebdim
    e----0--   e----0--    e----2--
    B----3--   B----3--    B----1--
    G----3--   G----3--    G----2--
    D----2--   D----5--    D----1--
    A----*--   A----*--    A----*--
    E----*--   E----*--    E----*--
    
    INTRO
            Gm6      Gm6*      A7
    e-----------------------------------|
    B----5-6-5----5-6-5----8-6-5/6/5---5|
    G--7--------7--------7-----------7--|
    D-----------------------------------|
    A-----------------------------------|
    E-----------------------------------|
    
                       Bb
    Si sientes que tus ojos,
          Gm         A7
    
  • Este mes me pusieron muy norteño con sus peticiones, y pues aqui anda
     uno, complaciendo gente, y pues solo me queda decirles que la 
    disfruten!!!  
                             
                             LA MUJER QUE AMAS 
                              Pedro Fernandez
    
    Transcrita por: Nestor Sadao Arechiga Cervantes
    
    La Afinacion del Bajo es D dropped (D A D G)
    Empezemos!!!
    
      Q=73
     4/4
      Gtr I
      W          W          W          W
    |----------|----------|----------|------|
    |----------|----------|----------|------|
    |----------|----------|----------|------|
    |----------|----------|----------|------|
    
    
      H    H      +Q   Q  +H       H    +S  S S S Q    +H     H
    |-----------|----------------|-------------------|-------------|
    |-----------|----------------|-------------------|-------------|
    |-----------|------3--(3)----|-------------------|--------1----|
    |------1----|-(1)------------|-0----(0)---0---0--|-(0)---------|
    
    
      +Q   Q  +E  E +Q     H    +E  S S Q    +H     H  
  • +
    ¡Colabora con nosotros!
    Envíanos tu versión de esta canción

Letra de La mujer que amas
Si sientes eque tus ojos
se iluminan al mirar su cara
y el corazón tiembla de amor
y te sacude los hilos del alma
es la señal de su llegada
es sin duda la mujer que amas.
Abre tus alas
dile que ya la esperabas
dale tus sueños
no dejes que se vaya.
Dile que nadie
te hará cambiar este amor por ella
dile que el amor existe
dile que lo conociste en ella
Si sientes que le hablas
con los ojos tan solo con tocarla
en tu interior sientes el sol
arden tus venas y tus ganas
y hasta te sientes como un niño
es sin duda la mujer que amas
Abre tus alas.......(etc)
Dile que nadie......(etc)
Cuando se ama a una mujer
logras entender el verdadero amor
el verdadero amor
amala por siempre asi
ella te dira que es tuya.
(HABLADO)
Cuando en verdad tu amas a una mujer.
Y si te sientes como un niño
es sin duda a mujer que amas
Abre tus alas..........(etc)
Dile que nadie.........(etc)
Dile que el amor existe
dile que lo conociste en ella
dile que el amor existe
dile que lo conociste en ella.




[La mujer que amas chords][La mujer que amas cifra]
© LaCuerda.net · aviso legal · privacidad · es · en · pt · contacto