Acordes de Guitarra » P »Paulina Rubio » Y Yo Sigo Aquí (Tab)

Y Yo Sigo Aquí
Paulina Rubio

  • Letra y Acordes
    F           C7            F
    
    E---------------------------
    A---------------------------
    D------------------------3-3
    G-5-3----3-5-5----5-3-3-----    X 6 VeCeS
    B---------------------------
    e---------------------------
    
    
    ACORDES:
    
    'F'              'C7'
    
    E 1              E 3 
    A 3              A 3
    D 3              D 5
    G 2              G 3
    B 1              B 5
    E 1              E 3
    
  • Tablatura
    |----------|-0----1----1---3----3------|
    |----------|-1----3----3---5----5------|
    |----------|-2----3----3---5----5------|
    |----------|---------------------------|
    |----------|---------------------------|
    |----------|---------------------------|
    
    
      S E  S E  S S S E  S Q      S E  S E  S S S E  S Q
    |-3----1----1---0----0------|-0----1----1---3----3------|
    |-5----3----3---1----1------|-1----3----3---5----5------|
    |-5----3----3---2----2------|-2----3----3---5----5------|
    |---------------------------|---------------------------|
    |---------------------------|---------------------------|
    |---------------------------|---------------------------|
    
    
      S E  S E  S S H      S E  S E  S S S E  S Q
    |-3----1----1--------|-0----1----1---3----3------|
    |-5----2----2--------|-1----3----3---5----5------|
    
  • Tab p/Bajo
    Transcrita por: Nestor Sadao Arechiga Cervantes
    
    Esta cancion se toca con un bajo de 6 cuerdas...
    ...y la afinacion es: (B E A D G B)
    
      Q=125
     4/4
    
      W          W          W          W
    |----------|----------|----------|------|
    |----------|----------|----------|------|
    |----------|----------|----------|------|
    |----------|----------|----------|------|
    |----------|----------|----------|------|
    |----------|----------|----------|------|
    
    
      W          E S S +S  S E E S S +S  S E   E S S +S  S E E S S +S  S E
    |----------|-----------------------------|------------------------------|
    |----------|-----3-(3)---3---------------|-----3-(3)---3----------------|
    |----------|-3---------------------------|---------------3---3-(3)------|
    |----------|---------------3---3-(3)-----|-3----------------------------|
    |----------|---------------------------3-|------------------------------|
    |----------|-----------------------------|---------------------------1--|
    
    
      E S S +S  S E E
  • +
    ¡Colabora con nosotros!
    Envíanos tu versión de esta canción

Letra de Y Yo Sigo Aquí
ACORDES:
'F' 'C7'
'Arominizada como en el CD'
Tu quimica con mi piel
hacen carga positiva
tu quimica con mi piel
hacen carga positiva
y cuando me acerco a ti
hay una bomba explosiva
y cuando me acerco a ti
hay una bomba explosiva
Tu boca tiene la sal
mi cuerpo el azucar
tu boca tiene la sal
mi cuerpo la azucar
mi corazon esta
busca que te busca
mi corazon esta
busca que te busca
Y yo sigo aqui
esperandote
y que tu dulce boca
ruede por mi piel
Y yo sigo aqui
esperandote
y que tu dulce boca
ruede por mi piel
Te besare
si queda alguna manera
Te besare
si queda alguna manera
Pa´ que te fijes en mi
y entonces me quieras
Pa´ que te fijes en mi
y entonces me quieras
y entonces me quieras
y entonces me quieras
'AQUI SE TOCA EL INTRO OTRA VEZ'
Si a ti te gusta morder
el mango bien madurito
Si a ti te gusta morder
el mango bien madurito
ven mirame a mi tengo colorcito
ven mirame a mi tengo colorcito
Si en la vida hay que escojer
por muchos caminos
Si en la vida hay que escojer
por muchos caminos
escojeme a mi
eso yo te pido
escojeme a mi
eso yo te pido
Y yo sigo aqui
esperandote
y que tu dulce boca......'SE REPITE TODA'

/( )`
\ \___ / |
/- _ `-/ '
(/\/ \ \ /\
/ / | ` \
O O ) / |
`-^--'`< '
(_.) _ ) /
`.___/` /
| |
\ /
______( (_ / \______
Kher !!



© LaCuerda.net · aviso legal · privacidad · contacto