Acordes de Guitarra » P »Pastoral » Desde que (Tab)

Desde que
Pastoral

  • Letra y Acordes
                 A                        G                            D         A
    -----------------)--------------)------------------)-----------------------
    -----------------)--------------)------------------)-----------------------
    -----------------)--------------)------------------) ----------------------
    -----------------)--------------)----------------0 )-----------------------
    --0---2---3--0---)--0--2--3-----)---0---2---3------)--0---2----3---0------
    -----------------)------------3-)------------------)----------------------(dos veces)
    
    Riff 2
    
    --5--5---3--3--5--3--0-----
    --5--5---3--3--5--3--0-----
    ------------------------------
    ------------------------------
    ------------------------------
    -----------------------------
     SE REPITEN LOS MISMOS ACORDES 
     A        C          D             A  
    Desde que sueño con un mundo verde mar
    C         D           A
    
  • +
    ¡Colabora con nosotros!
    Envíanos tu versión de esta canción

Letra de Desde que
Riff 2
SE REPITEN LOS MISMOS ACORDES
Desde que sueño con un mundo verde mar
y se descuelgan espermas
muertos antes de llegar.
Desde que oigo mentir con poesía y
saltar sin verse las lágrimas
del que se atrevió a llorar.
Desde que huelo el sonido del viento azul
perderse en el cementerio
del que se atrevió a vivir.
Desde que comenzamos a existir.
AGUANTE EL ROCK NACIONAL !!!!!!
TENGO 15 AÑOS y la rompo loco , aguante pastoral!!!!!



© LaCuerda.net · aviso legal · privacidad · contacto