Tablatura para Bajo de Las Pastillas del Abuelo: Mi mama y mortadela
Conexión · Inscripción
Letras y Acordes
Pantalla Completa
Imprimir
Versión Texto
Añadir Favorito
Otras Versiones

Mostrar Diagramas
Desfile Automático
Formato del Texto


Las Pastillas del Abuelo
Mi mama y mortadela(BAJ)
calidad:
pdab0352
AUTOR: Pity
ALBUM: desconocido
Enviado por nahuel
Hola gente.. la versión que saque de este tema es en vivo..
así que tiene un par de cosas raras.

Si ven una nota así.
0(x)à significa que hay que tocar muchas veces;

y si ven esto...

4’/2àsignifica que deben dejar sonando un poco la nota,
y luego arrastrarla hasta la otra .

Aguante Tucumán..
Saludos a los pibes del 17, a las Hadas Doradas
del Cristal y a los de la banda...para ellos va dedicado.

Intro:
G|------------------------|X3
D|-----4---------------5-4|
A|2—-5---------------2----|
E|-------5-3-2---2-3------|

G|------------------------|
D|-----4---------5-4------|
A|2—5----------------5-4-2|
E|-------5-3-2------------|

Intro: (cuando entran los otros instrumentos)
G|------------------------|X3
D|-----4---------------5-4|
A|2—-5---------------2----|
E|-------5-3-2---2-3------|

G|------------------------|
D|-----4---------5-4------|
A|2—5----------------5-4-2|
E|-------5-3-2------------|

Versos:
G|------------------------|X3
D|-----4---------------5-4|
A|2—-5---------------2----|
E|-------5-3-2---2-3------|

G|------------------------|
D|-----4---------5-4------|
A|2—5----------------5-4-2|
E|-------5-3-2------------|

Cuando dice “Siempre esta Lea, maldito cumbianchero” hace
esto:

G|---------------------------------|
D|---------------------------------|
A|------------2-22-2--4’/2---2-22-2|
E|0(x)-2(x)------------------------|

Cuando dice “Siempre esta el chino que saca su pañuelo” hece esto:

G|----------------|
D|----------------|
A|----------------|
E|0(x)-2(x)-3-33-2|

Solo: igual que intro y versos

Estribillos:
G|------------------------|X3
D|-----4---------------5-4|
A|2—-5---------------2----|
E|-------5-3-2---2-3------|

G|------------------------|
D|-----4---------5-4------|
A|2—5----------------5-4-2|
E|-------5-3-2------------|

Cuando hace el tema de Shakira hace esto:

G|------------------------|X3
D|-----4---------------5-4|
A|2—-5---------------2----|
E|-------5-3-2---2-3------|

G|------------------------|
D|-----4---------5-4------|
A|2—5----------------5-4-2|
E|-------5-3-2------------|

Final:
G|---|
D|---|
A|-2-|
E|---|

Bue.. el tema es fácil así que espero que les guste
Este fichero es trabajo propio de su transcriptor y representa su interpretación personal de la canción. El material contenido en esta página es
para exclusivo uso privado, por lo que se prohibe su reproducción o retransmisión, así como su uso para fines comerciales.
© LaCuerda.net · Aviso Legal · Privacidad