Tablatura para Guitarra de Las Pastillas del Abuelo: El Enano
Conexión · Inscripción
Letras y Acordes
Pantalla Completa
Imprimir
Versión Texto
Añadir Favorito
Otras Versiones

Mostrar Diagramas
Desfile Automático
Manipular Acordes
Formato del Texto


Las Pastillas del Abuelo
El Enano(TAB)
calidad:
pdab0344
AUTOR: Las Pastillas del Abuelo
ALBUM: desconocido
Enviado por carlos
INTRO

----2-----2h3p---------------3--
----3------------3--0----1--3---
-----------------2--0----0--0---
----0---0----------------------- X3
-----------------------3--------
----------------------------3---


---2----2h3p----------------------2--
---3-------------3--0-----1--3----3--
-----------------2--0-----0--0-------
---0--0---------------------------0--
-----------------------3-------------
- -----------------------------3-----

--------------------------------------
--------3p0----1--1---------3p0-----3-
----0h2--------2--2-----0h2---------2-  X4
--0-------------------0---------------
-------------0----3-------------------
---------------------------------3----

comienzo:

----------------------------------------I
--3------3p0----1--1---------3p0-----3--I
--2--0h2--------2--2-----0h2---------2--I X8
--0-------------------0-----------------I
-------------0----3---------------------I
---------------------------------3------I

No se quema con basura...............
Este fichero es trabajo propio de su transcriptor y representa su interpretación personal de la canción. El material contenido en esta página es
para exclusivo uso privado, por lo que se prohibe su reproducción o retransmisión, así como su uso para fines comerciales.
© LaCuerda.net · Aviso Legal · Privacidad