Tablatura para Bajo de Pappo: Katmandu
Conexión · Inscripción
Letras y Acordes
Pantalla Completa
Imprimir
Versión Texto
Añadir Favorito
Otras Versiones

Mostrar Diagramas
Desfile Automático
Formato del Texto


Katmandu(BAJ)

Pappo

calidad:
papp0373
AUTOR: Pappo  corregir
ALBUM: desconocido
Enviado por victor
                                                               \
“Voy de viaje…     …si no estas tu…              …si no estas… |
G|-----------------------------------------------------------  |
D|-----------------------------------------------------------  |
A|-------------------------------0--------------0------------  |
E|-0--------------0------------------------------------------  |Parte
…tu…                           …voy de viaje a Katmandu…       |  A
G|-----------------------------------------------------------  |
D|-----------------------------------------------------------  |
A|-------------------------------2-------0-------------------  |
E|-0--------------0-----------------------------0------------  |
                                                               /
G|----------------
D|----------9--8--
A|----------------
E|-0--------------

Repite parte A. Despues:

G|----------------
D|----------------
A|----------------
E|-0--------------

1:07                  (2 veces)
G|-----------------------------------------------------------
D|-----------------------------------------------------------
A|-4-----------------------------2--------------4------------
E|----------------2------------------------------------------

G|----------------
D|----------------
A|-4--------------
E|----------------

1:34
G|------------------------------------------------------------
D|------------------------------------------------------------
A|-------------------------------0--------------0-------------
E|-0-------------0--------------------------------------------

G|------------------------------------------------------------------------
D|------------------------------------------------------------------------
A|-------------------------------2-------0--------------------------------
E|-0-------------0------------------------------0-------------0-----------

2:02                  (2 veces)
G|------------------------------------------------------------
D|------------------------------------------------------------
A|------------------------------------------------------------
E|-6-------------6---------------5--------------5-------------

G|-7----------------------------------------------------------
D|-7-------------7--------------------------------------------
A|-5-------------7--------------------------------------------
E|---------------5---------------0----------------------------

Y en el final repite parte A.


Katmandu (Pappo)

Voy de viaje a Katmandú
El viaje no es lo mismo si no estas tú
Si no estas tú...

Voy de viaje a Katmandú

No tengo visa no puedo entrar
No creo que este se pueda imaginar
Como yo la extraño...

Voy de viaje a Katmandú

No tengo visa no puedo entrar
No creo que este se pueda imaginar
Como yo la extraño...

Voy de viaje a Katmandú

Mientras su musica se siga tocando y escuchando el carpo jamas morira,
vivira eternamente en la memoria de todos.
Este fichero es trabajo propio de su transcriptor y representa su interpretación personal de la canción. El material contenido en esta página es
para exclusivo uso privado, por lo que se prohibe su reproducción o retransmisión, así como su uso para fines comerciales.

© LaCuerda.net · Aviso Legal · Privacidad