Tablatura para Guitarra de Panda: El cuello perfecto
Conexión · Inscripción
Letras y Acordes
Pantalla Completa
Imprimir
Versión Texto
Añadir Favorito
Otras Versiones

Mostrar Diagramas
Desfile Automático
Manipular Acordes
Formato del Texto


El cuello perfecto(TAB)

Panda

calidad:
pnda0904
AUTOR: Panda  corregir
ALBUM: Poetics (2009)
Enviado por Fabrizio
Bueno aki les dejo la tab de el cuello perfecto,
que es una rola buenísima, estuve revisando
las otras tabs esta es una de las mejores
pilaz con el efecto que usen, es muy importante
para cualquier inquietud mi coreeo es: itfasu@hotm....
espero y apoyen a esta tab, sino m la van a sacar g g
Intro
Bbm Db Gb Ab Gb eb--------------------------------------------------------------| Bb------------------------------------8-8--888-101010--888------|
Gb--4-4--4444--4444--7-7--777-8-7777--7-7--777--9-9-9--777------| Db--4-4--4444--4444--7-7--777-7-7777--5-5--555--7-7-7--555------|
Ab--2-2--2222--2222--5-5--555-7-5555----------------------------| Eb--------------------------------------------------------------| | X 2 eb--------------------------------------------------------------|
Bb--7-7--8/10--5-5555-------------------------------------------| Gb--6-6--7/9---4-4444-------------------------------------------|
Db--4-4--5/7---2-2222-------------------------------------------| Ab--------------------------------------------------------------|
Eb--------------------------------------------------------------| Estrofa 1
Bbm Db No me sacio quiero más estoy muy incorrecto
Bbm Db allá afuera ya está oscuro, ya llego el momento Pre coro
Bbm Ab Trato de aparentar que soy normal y bueno
Bbm Ab Serio es lo que más quiero Estrofa 2
Bbm Db Esta vida no elegí, ella me escogió a mi
Bbm Db Me hicieron parte de este plan sin mi consentimiento Pre coro
Bbm Ab Muy atento ahora busco el cuello perfecto
Bbm Ab Que me de mi alimento Esto antes del coro :--Gb-----Bbm--Ab Coro
Bbm Db Gb Ab Mientes no tiene final, me altero mas cuando la veo pasar
Bbm Db es de noche y ya me voy,
Gb Db Ab Bbm la oscuridad me ayudará a saciar mi adicción Intro
Bbm Db Gb Ab Gb eb--------------------------------------------------------------| Bb------------------------------------8-8--888-101010--888------|
Gb--4-4--4444--4444--7-7--777-8-7777--7-7--777--9-9-9--777------| Db--4-4--4444--4444--7-7--777-7-7777--5-5--555--7-7-7--555------|
Ab--2-2--2222--2222--5-5--555-7-5555----------------------------| Eb--------------------------------------------------------------| | eb--------------------------------------------------------------|
Bb--7-7--8/10--5-5555-------------------------------------------| Gb--6-6--7/9---4-4444-------------------------------------------|
Db--4-4--5/7---2-2222-------------------------------------------| Ab--------------------------------------------------------------|
Eb--------------------------------------------------------------| Aki al final le aumentas esto
Bbm eb---------
Bb---------| Gb--4/xx---|
Db--4/xx---| Ab--2/xx---|
Eb---------| Estrofa 3 (esto es solo con batería) Siempre me visto de negro así camuflajear pasar desapercibido antes de atacar Pre coro
Bbm Ab Así como el ser humano ocupa con ver
Bbm Ab lo que ocupo ya es normal Estrofa 4
Bbm Db Por ahí murmuran que yo peco de avaricia
Bbm Db que a cambio solo doy una simple caricia -Pre coro
Bbm Ab Que mis ojos son profundos eso no es noticia
Bbm Ab los colmillos no se quitan -Coro
Bbm Db Mi hambre no tiene final
Gb Ab me altero mas cuando la veo bloquear
Bbm Db es de noche y ya me voy
Gb Db Ab Gb---> la oscuridad me ayuda a saciar mi ambición -Solo
Gb Bbm Ab eb--------------------------------------------------------------
Bb-------------------------------------------------------------- Gb--9/7--9-9b11--11r9p7--9b11r9p7-----7h9-7h9--7/----0----------
Db--------------------------------9-----------------------------
Ab--------------------------------------------------------------
Eb--------------------------------------------------------------
Gb Bbm Ab eb------------------------------12------------------------------
Bb--7~~~--------10~~~--12~~~~12--------------------------------- Gb--9b11--9/12--12b14--14b16~~~~~~-16r14p12-14~~~~/-------------
Db--------------------------------------------------------------
Ab--------------------------------------------------------------
Eb--------------------------------------------------------------
Ebm Bbm eb---------------------------------------------------------- ...
Bb---------------0h2h3h5~~--5p3p2p0~-------0h2h3h5--0h2h3h5- ... Gb----------0h2h4---------------------0h2h4----------------- ...
Db-----0h2h4------------------------------------------------ ...
Ab---------------------------------------------------------- ...
Eb---------------------------------------------------------- ...
Ab ... eb-2-0h2h3-3-0h2h3-5~~-
... Bb---------------------
... Gb---------------------
... Db---------------------
... Ab---------------------
... Eb---------------------
Ebm Bbm eb-17-15-14h15p14----14----------------------------------
Bb----------------17----17-15h17p15-14-15-14------------- Gb-------------------------------------------16-14-16-16-
Db-------------------------------------------------------
Ab-------------------------------------------------------
Eb-------------------------------------------------------
Ab eb-------------14-15-17b19r17t19p17t19p17t19p17--
Bb----14-15-17----------------------------------- Gb-16--------------------------------------------
Db-----------------------------------------------
Ab-----------------------------------------------
Eb-----------------------------------------------
Gb eb-14b15r14---------14b15r14------------------------------------
Bb----------15-17------------15-17------------------------------ Gb----------------------------------16~~------------------------
Db--------------------------------------------------------------
Ab--------------------------------------------------------------
Eb--------------------------------------------------------------
Bbm Ab eb-14b15r14---------17b19r17-15-14h15p14------------------------
Bb----------15-17------------------------17p15------------------
Gb--------------------------------------------------------------
Db--------------------------------------------------------------
Ab--------------------------------------------------------------
Eb--------------------------------------------------------------
Gbm eb-14b15r14---------14b15r14------------------------------------
Bb----------15-17------------15-17------------------------------ Gb----------------------------------16~~------------------------
Db--------------------------------------------------------------
Ab--------------------------------------------------------------
Eb--------------------------------------------------------------
Bbm Ab eb-14b15r14-----------------------------------------------------
Bb----------15-17---14-14-14/15-15/17-17/19-19/-----------------
Gb--------------------------------------------------------------
Db--------------------------------------------------------------
Ab--------------------------------------------------------------
Eb--------------------------------------------------------------
Ebm Bbm Ab eb--------------------------------------------------------------
Bb-15p14-----------14-15p14----------15p14---------------------- Gb-------14-----14----------14-------------14-------------------
Db----------16-----------------16~------------16-16-14-16b17r16~
Ab--------------------------------------------------------------
Eb--------------------------------------------------------------
Ebm eb-14b15r14---------14b15r14------------------------------------
Bb----------15-17------------15-17------------------------------ Gb----------------------------------16~~------------------------
Db--------------------------------------------------------------
Ab--------------------------------------------------------------
Eb--------------------------------------------------------------
Bbm Ab eb-14b15r14---------17-17-17/-----------------------------------
Bb----------15-17-----------------------------------------------
Gb--------------------------------------------------------------
Db--------------------------------------------------------------
Ab--------------------------------------------------------------
Eb-------------------------------------------------------------- Posiciones Estrofas
Bbm Db
Eb---------------------------------------------------------------
Bb--------------------------------------------------------------- Gb---4-4-444x--4444---------7-7-777x-7777------------------------
Db---4-4-444x--4444---------7-7-777x-7777------------------------ Ab---2-2-222x--2222---------5-5-555x-5555------------------------
Eb--------------------------------------------------------------- Pre coro
Bbm Ab
Eb------ Eb------
Bb------ Bb------
Gb--9--- Gb--7---
Ab--9--- Ab--7---
Eb--7--- Eb--5--- Coro
Bbm Db Gb Ab
Eb------ Eb----- Eb----- Eb------
Bb------ Bb--7-- Bb----- Bb------
Gb--9--- Gb--7-- Gb--5-- Gb--7---
Ab--9--- Ab--5-- Ab--5-- Ab--7---
Eb--7--- Eb----- Eb--3-- Eb--5---
Este fichero es trabajo propio de su transcriptor y representa su interpretación personal de la canción. El material contenido en esta página es
para exclusivo uso privado, por lo que se prohibe su reproducción o retransmisión, así como su uso para fines comerciales.

© LaCuerda.net · Aviso Legal · Privacidad