Tablatura para Guitarra de los Panchos: Presentimiento
Conexión · Inscripción
Letras y Acordes
Pantalla Completa
Imprimir
Versión Texto
Añadir Favorito
Otras Versiones

Mostrar Diagramas
Desfile Automático
Manipular Acordes
Formato del Texto


Presentimiento(TAB)

los Panchos

calidad:
pnch1072
AUTOR: Pedro Mata, Emilio Pacheco
ALBUM: Los Panchos Y Guty Cardenas
Enviado por jose
E----------------------------------------------------------
A---------------------------------0-1-0--------------------
D----------------------------------------------------------
G-2---------------------3-2-----3-------0-2-3-0-2-3--------
B---3-2-3-2-3-2-3-2-3-1-----1-0---------------------1-0-1-0
e----------------------------------------------------------


-----------------------------------------------------------
-----------------------------------------------------------
-------------------------------------------------------3---
-----------3-2-0-3---2-0-2-3-0-2-3-2-3-2-3-2-3-2-3-2-0---2-
-1-0-1-0-1---------1---------------------------------------
-----------------------------------------------------------


-------------------------------------------
-------------------------------------------
-----2-3-----------------------3-2-0-------
-1-0-----0-2-1-2-1-2-1-2-3-2-0-------2-----
---------------------------------------3---
-----------------------------------------1-
Este fichero es trabajo propio de su transcriptor y representa su interpretación personal de la canción. El material contenido en esta página es
para exclusivo uso privado, por lo que se prohibe su reproducción o retransmisión, así como su uso para fines comerciales.

© LaCuerda.net · Aviso Legal · Privacidad