Tablatura para Guitarra de los Panchos: Pagina blanca
Conexión · Inscripción
Letras y Acordes
Pantalla Completa
Imprimir
Versión Texto
Añadir Favorito
Otras Versiones

Mostrar Diagramas
Desfile Automático
Manipular Acordes
Formato del Texto


Pagina blanca(TAB)

los Panchos

calidad:
pnch0681
AUTOR: Mario Curi, Guillermo Lepe
ALBUM: Los Trios Mas Famosos del Mundo
Enviado por Daniel
para requinto                                              
                                              
----3----5---3---5---3---5----1--3--3--3--1--1--
----5--5---5---5---5---5---5--3--3--3--3--3--3--
--0---------------------------------------------
------------------------------------------------
------------------------------------------------
------------------------------------------------


----0----1---0---1---0---1----0--[0]-----------------
----1--1---1---1---1---1---1-----[3]--1--0-----------
--0-----------------------------------------2--1--0--
-----------------------------------------------------
-----------------------------------------------------
-----------------------------------------------------



----3---5m3---3---5m----0---1m0---0---1m0-----0--[0]-----------------
----5---5-----5---5-----1---1-----1---1----------[3]--1--0-----------
--0---0-----0---0-----0---0-----0---0-----0-----------------2--1--0--
---------------------------------------------------------------------
---------------------------------------------------------------------
---------------------------------------------------------------------


G Em Am Te quieeeeroooo hay
D7 G Em Am Mi linda muñequiiiiita
D7 G Em Am Yo se que tu comprendes
D7 G Em Am D7 Las penas que hay en mi
G Em Am Te adoooooroooo hay
D7 G Em Am Mi linda Muñequita
D7 G Em Am Yo se que tu comprendes
D7 G Em Am D7 Mi amor sentimental la cancion esta en circulo de G toda nomas escuchenla rola y sale
Este fichero es trabajo propio de su transcriptor y representa su interpretación personal de la canción. El material contenido en esta página es
para exclusivo uso privado, por lo que se prohibe su reproducción o retransmisión, así como su uso para fines comerciales.

© LaCuerda.net · Aviso Legal · Privacidad