Tablatura para Guitarra de los Panchos: Herida de amor
Conexión · Inscripción
Letras y Acordes
Pantalla Completa
Imprimir
Versión Texto
Añadir Favorito
Otras Versiones

Mostrar Diagramas
Desfile Automático
Manipular Acordes
Formato del Texto


Herida de amor(TAB)

los Panchos

calidad:
pnch0942
AUTOR: C.estrada.
ALBUM: desconocido
Enviado por jose
E-----------------------------------------5-3-3-3-4-5-3-4-5
A-----------------------------------3-2-0------------------
D-----------------------------3-2-0------------------------
G-2-1-2-------------------2-0------------------------------
B-------0-1-3-------3-1-0----------------------------------
e-------------0-1-0----------------------------------------


-3-4-5-3-4-5-3-4-5-3-4-5-3-4-5-5-3-4-----------------------
-------------------------------------0---------------------
-----------------------------------------------------------
---------------------------------------2---2-1-2-----------
-----------------------------------------0-------0-1-3-----
-------------------------------------------------------0-1-
------------------------3-5-3-3-4-5-5-3-4-5-5-3-4-5-5-3-4-5
------------------3-2-0------------------------------------
------------3-2-0------------------------------------------
--------2-0------------------------------------------------
--3-1-0----------------------------------------------------
0----------------------------------------------------------


-3---------------
---0-2-3-3-------
-----------0-----
-------------5-5-
-------------5-5-
-------------7-5-
Este fichero es trabajo propio de su transcriptor y representa su interpretación personal de la canción. El material contenido en esta página es
para exclusivo uso privado, por lo que se prohibe su reproducción o retransmisión, así como su uso para fines comerciales.

© LaCuerda.net · Aviso Legal · Privacidad