Acordes de Guitarra » P »Pablo "Pinocho" Routin » Baile de mascaras (Tab)

Baile de mascaras
Pablo "Pinocho" Routin

Letras, Acordes y Tabs para Guitarra, Bajo y Ukulele

  •      B-3
         G-2
         D-2
         A-0
         E-0
    
    INTRO:
    e|-------------------------------------
    B|------------1-1-1-1------------------
    G|--------------------2----------------
    D|--------------------------------0----
    A|------0-0---------------0------3---0-
    E|-0-1---3------------------3-1-----3--
    
    e|-------------------------------------------------
    B|------------1-1-1-1-3----------------------------
    G|-------------------------------------------------
    D|-----------------------0-----------0---3---------
    A|------0-0-----------------0--3-0--3--0----3-1-0-0
    E|-0-1---3-----------------3----3-------3----------
    
  • +
    ¡Colabora con nosotros!
    Envíanos tu versión de esta canción

Letra de Baile de mascaras
("Empieza con ritmo Marcha Camion")
¿Quien hizo sonar nuevamente
el viejo tambor destemplado?
¿En manos de quien fue encendido
aquel redoblante apagado?
¿Quien vino a golpear a tu puerta?
Pepino de triste sonrisa
Ayer de venta los cantares
Cachela de antigua alegria
Rasca la cascara, rasca la cascara,
rasca la cascara, bailar de mascara...--]empieza ritmo Murga candombeada
¿Por qué la risa?
¿Por qué las caras?
¿Por que pintadas? Dicen porque...
Revuelven y revuelven la hojarasca
renazca pa' tras carnaval
("Marcha Camion")
¿Cual fue la explosion de platillos
Con coros de cantos cascados?
¿Quien fue que arrimo los barriles
que aguantan en Nuevo Tablado?
El hoy es pirueta del tiempo,
tablado que vuelve a poblarse.
Tu marco de gente presente
de nuevo ha venido a escucharte.
Rasca la cascara, rasca la cascara,
rasca la cascara, bailar de mascara...--]Murga Candombeada
¿Por qué la risa? (la cascara)
¿Por qué las caras? (la cascara)
¿Por que pintadas? Dicen porque...
Revuelven y revuelven la hojarasca
renazca pa' tras carnaval
INSTRUMENTAL
("Ahora Marcha camion hasta el final")
Pepino bailando esta aqui,
Cachela dio el tono de vuelta
con caras de corcho quemado
con voces de murgas resueltas
Rasca la cascara, rasca la cascara,
rasca la cascara, rasca la cascara
¿Por qué la risa? (rasca la cascara)
¿Por qué las caras? (rasca la cascara)
¿Por que pintadas? (rasca la cascara)
Bailar de mascaras.

Video de Baile de mascaras
[]




[Baile de mascaras chords][Baile de mascaras cifra]
© LaCuerda.net · aviso legal · privacidad · es · en · pt · contacto