Acordes de Guitarra » P »Pablo Milanés » Para Vivir (Tab)

Para Vivir
Pablo Milanés

Letras, Acordes y Tabs para Guitarra, Bajo y Ukulele

  •      Intro: G C B E F# D G
                          
    
         G                                    C
         Muchas veces te dije que antes de hacerlo
            A7                    D
         habia que pensarlo muy bien,
         G
         Que a esta union de nosotros
                   C    A7                 D
         le hacia falta carne y deseo tambien,
    
         G          C                 A7
         Que no bastaba que me entendieras
                            D
         y que murieras por mi,
         G          C                 A7
         Que no bastaba que en mi fracaso
                             D
         yo me refugiara en ti,
    
  • Intro: G E C D G E C D 
                          
    
         G               Em                   C
         Muchas veces te dije que antes de hacerlo
                       D
         habia que pensarlo muy bien,
         G                      Em
         Que a esta union de nosotros
                   C               D
         le hacia falta carne y deseo tambien,
    
         G          Em                 C
         Que no bastaba que me entendieras
                   D
         y que murieras por mi,
         G          Em                C
         Que no bastaba que en mi fracaso
                  D
         yo me refugiara en ti,
    
  •    G                 D/F#  Em       Em/D     C     C/B     Am    D/F#  G
    E ---------------------0----------0-------0----2-3-----2-3-----0-3-3-2-3--|
    B -0-----0-0------0--1---3-0----0-------0----3-----3-------1-3---3-----0--|
    G -0---0--------0----2-----0--0-------0------0-----0-------2-----2-----0--|
    D ---0--------0------------2--------0--------2-------------0-----------0--|
    A -------------------------2-----------------3-----2-------------------2--|
    E -3---------3-------2-----0-------------------------------------2-----3--|
    
    
    G      G/F#     Em
    Muchas veces te dije
    Em/D          C       Am           D
    que antes de hacerlo había que pensarlo muy bién,
    G          G/F#       Em
    que a esta unión de nosotros
    Em/D     C     Am         D
    le hacía falta carne y deseo también,
    G   G/F#  Em   Em/D
    que no bastaba
                 C        A7              D
    
  •      Q    E  E  E  E  E  E
    E||-------------------------|
    B||-------------0--2-----0--|
    G||----------2--------2-----|
    D||-------2-----------------|
    A||--0----------------------|
    E||-------------------------|
    
      E  E  E  E  E  E  E  E
    --------------------2--0--|
    --2--3--------------------|
    -----------4--2--1--------|
    --------4-----------------|
    -----2--------------------|
    -----------------0--------|
    
      E  E  E  E  E  E  E  E
    -----3--------------2--0--|
    --3-----------------------|
    --------2--4--2--1--------|
    
  • +
    ¡Colabora con nosotros!
    Envíanos tu versión de esta canción

Letra de Para Vivir
Muchas veces te dije que antes de hacerlo
habia que pensarlo muy bien,
Que a esta union de nosotros
le hacia falta carne y deseo tambien,
Que no bastaba que me entendieras
y que murieras por mi,
Que no bastaba que en mi fracaso
yo me refugiara en ti,
Y ahora ya ves lo que paso
al fin nacio, al pasar de los años,
el tremendo cansancio que provoco ya en ti,
Y aunque es penoso lo tienes que decir.
Por mi parte esperaba
que un dia el tiempo se hiciera cargo del fin,
si asi no hubiera sido
yo habria seguido jugando a hacerte feliz,
Y aunque el llanto es amargo piensa en los años
que tienes para vivir,
que mi dolor no es menos y lo peor
es que ya no puedo sentir,
Y ahora tratar de conquistar
con vano afan ese tiempo perdido
que nos deja vencidos sin poder conocer
eso que llaman AMOR
Para vivir
Para vivir... G C B E F# D G
Trasncrita por: Mite Nishio, mnishio@tricom.net




[Para Vivir chords][Para Vivir cifra]
© LaCuerda.net · aviso legal · privacidad · es · en · pt · contacto