Acordes de Guitarra » P »Pablo Herrera » Tengo un amor (Tab)

Tengo un amor
Pablo Herrera

  • Letra y Acordes
    A E C#7 F#m (F#m - E - D) A E  D - E - A
    
    
    C#7
    1---0-----
    2---4-----
    3---6-----
    4---5-----
    5---6-----
    6---0-----
    
    
    
    A                           E
    Tengo un amor que es un castigo del Señor
    Bm                      F#m              F#m - E - D
    Que me domina y me  hace triza el corazón
    D                 A              E  - D - E
    Que me ha dejado sólo sin ver el sol.
    A                              E
    
  • Letra y Acordes
    (LA 6ª en E ...   etc) 
    
    Re#/G  
    
    Cuerda  /  Espacio
    6ª             3
    5ª             X      
    4ª             1
    3ª             3
    2ª             4
    1ª             1
    
    
    B                           F#
    Tengo un amor que es un castigo del Señor
    C#m                      G#m              F# - E
    Que me domina y me  hace triza el corazón
    E                 B              F#   E - F#
    Que me ha dejado sólo sin ver el sol.
    B                              F#
    
  • Tablatura
    e|-----------------------------------------------------------------------------
    B|-----------------------------------------------------------------------------
    G|-5/7--7--5--3--5--------2--3--5--7--5--3-------------------------------------
    D|----------------------------------------------------3/5--3-------------------
    A|--------------------------------------------------------------3/5---3----6---
    E|-----------------------------------------------------------------------------
    
    
    
    e|-----------------------------------------------------------------------------
    B|---5--5----3---------------3---------------------3---------------------------
    G|----------------5--3--3--5---5----------3-3-3--5---5-----2-3-----------------
    D|-----------------------------------------------------------------------------
    A|-----------------------------------------------------------------------------
    E|-----------------------------------------------------------------------------
    
    Verso I
    
    A#
    Tengo un amor
    
  • +
    ¡Colabora con nosotros!
    Envíanos tu versión de esta canción

Letra de Tengo un amor
Tengo un amor que es un castigo del Señor
Que me domina y me hace triza el corazón
Que me ha dejado sólo sin ver el sol.
Tengo un amor que es como un naufrago en el mar
que está muy sólo y nadie viene a rescatar
que se abraza a las olas buscando paz.
Tengo un amor que no es amor, que me hace daño,
mi corazón esta en sus manos,
me desespero y no tengo valor,
para irme de tí amor.
Tengo una amor que es una celda una prisión,
que me condena y me ha encerrado en su dolor,
que me ha dejado sólo sin ver el sol.
Tengo un amor que no es amor, que me hace daño,
mi corazón esta en sus manos,
me desespero y no tengo valor,
para irme de tí amor.



© LaCuerda.net · aviso legal · privacidad · contacto