Acordes de Guitarra » P »Pablo Alborán » Te he echado de menos (Tab)

Te he echado de menos
Pablo Alborán

Letras, Acordes y Tabs para Guitarra, Bajo y Ukulele

  • Dsus2...
    
    Luego me reportaré con el punteo del intro y el intermedio...
    
    Aquí pongo los acordes que vamos a usar, son los que recomiendo, es decir, esto
    es a mi criterio los que no pongo es porque son los acordes estándar, así que
    continuemos...
    
              EADGBe
    G:        320033   mejor este que G con la 2da al aire
    G/B:      x20033
    C9:       x32030
    Em7:      022030   mejor que: 020030 ó 020000...
    Dsus4:    xx0233
    Dsus2:    xx0230
    D#dim7:   xx1212   también lo pueden encontrar como D#°7
    Dsus4/F#: 2x0233
    B7:       x24242   mejor este... que este otro: x21202
    
    Intro:
    
  • SOL                 RE
    No queda más que tu no queda más que yo
    MIm             DO           LAm
    en este extraño salón  sin nadie que nos diga
    MIm                     RE
    donde cómo y cuándo nos besamos
    
    SOL         RE
    Tenía ganas ya de pasar junto a ti
    MIm           DO       LAm
    Unos minutos soñando, sin un reloj que cuente
    MIm                       RE
    las caricias que te voy dando,
    
    DO           SI7     MIm    DO        LAm           SI7
    Juramento de sal y limón, prometimos querernos los dos.
    
    MIm                            DO
    Te he echado de menos todo este tiempo
                     SOL                       RE
    
  • Intro: SOL RE SOL* SOL MIm RE - SOL SOL* SOL SOL*
    
    SOL                 RE
    No queda mas que tu no queda mas que yo
    MIm             DO           LAm
    en este extraño salón  sin nadie que nos diga
    MIm                     RE
    donde como y cuando nos besamos
    
    SOL         RE
    Tenía ganas ya de pasar junto a ti
    MIm           DO       LAm
    Unos minutos soñando, sin un reloj que cuente
    MIm                       RE
    las caricias que te voy dando,
    
    DO           SI7     MIm    FA#            DO      SIm
    Juramento de sal y limón, prometimos querernos los dos.
    
    MIm                            DO
    
  • G-C9-D/F#
    El orden del arpegio es el siguiente: 6-4-3-2-3-4-2-3
    (cuando toquen D el orden seria: 4-3-2-1-2-3-1-2)
    
    E|------10--------------10--------------10--------------12-------------|
    B|8-8-8----8/12---8-8-8----10~~---8-8-8----8/12---8-8-8----12-10~~-----|
    G|-----------------------------------------------------------------12~~|
    D|---------------------------------------------------------------------|
    A|---------------------------------------------------------------------|
    E|---------------------------------------------------------------------|
    
    
    G
    No queda mas que tu,
    D
    no queda mas que yo
    Em                 C9
    en este extraño salon.
    Am7                           Em
    sin nadie que nos diga donde, como
    
  • e |------------------------------9/10-8-7-7--------------------------- -----|
    B |-8-8-10p8p7-8--7------------8------------10~--7-8-10-10-12-8~--7-7-5-5--|
    G |-----------------9-9/11-7~--------------------7-9-11-11-12-9~--7-7-5-5--|
    D |----------------------------------------------------------------------- -|
    A |----------------------------------------------------------------------- -|
    E |----------------------------------------------------------------- -------|
    
    e|-----------------------------------------------------------------|
    B|-----------------------------------------------------7-8-10-7----|
    G|-7-7~--5-4-4-5p4-2--------7----7----7---7--7h9-7~--9---------7~-|
    D|-------------------0-2/4-5--4/5--4/5--4/5------------------------|
    A|-----------------------------------------------------------------|
    E|-----------------------------------------------------------------|
    
    e|----------7-10/12-12~----14----15~--7/5-5---------------------------------|
    B|-----7-10-------------/12---/12-----------8-8~--8-10-13-10h12-10-8-8/10~--|
    G|-7-9----------------------------------------------------------------------|
    D|---------------------------------------------------------------------------|
    A|---------------------------------------------------------------------------|
    E|---------------------------------------------------------------------------|
    
  • +
    ¡Colabora con nosotros!
    Envíanos tu versión de esta canción
  • Tutorial
    HD
    Como tocar Te he echado de menos Pablo Alboran en Guitarra (HD)
    Tutorial
    5:10
  • Tutorial
    HD
    Te he echado de menos guitarra tutorial acordes guitarra acustica perfecto como tocar alboran chords
    11:10
  • Tutorial
    HD
    DEMOSTRACIÓN DE COMO TOCAR TE HE ECHADO DE MENOS guitarraviva
    4:30
  • Tutorial
    Tutorial sobre como tocar Te he echado de menos_Pablo Alborán
    10:42

Letra de Te he echado de menos
No queda mas que tu no queda mas que yo
en este extraño salón sin nadie que nos diga
donde como y cuando nos besamos
Tenía ganas ya de pasar junto a ti
Unos minutos soñando, sin un reloj que cuente
las caricias que te voy dando,
Juramento de sal y limón, prometimos querernos los dos.
Te he echado de menos todo este tiempo
He pensado en tú sonrisa y en tú forma de caminar
Te he echado de menos he soñado el momento
de verte al lado mío dejándote llevar
Quiero que siga así tu alma pegada a mi
Mientras nos quedamos quietos dejando
que la piel cumpla poco a poco todos sus deseos
Hoy no hay nada que hacer, quedémonos aquí
contándonos secretos,
Diciéndonos bajito que lo nuestro siempre se hará eterno
Fantasía en una copa de alcohol,
Prometimos volver a vernos
Te he echado de menos todo este tiempo...
Silencio...que mis dedos corren entre tus dedos
Y con un suave desliz hago que se pare el tiempo
Te he echado de menos todo este tiempo (x2)
Yo te he echado de menos X2
Una de las canciones mas bonitas de Pablo!!!
Aqui la teneis, espero que os guste y que la disfruteis!!




[Te he echado de menos chords][Te he echado de menos cifra]
© LaCuerda.net · aviso legal · privacidad · es · en · pt · contacto