Acordes de Guitarra » O »Oscar de León » Llorarás (Tab)

Llorarás
Oscar de León

Letras, Acordes y Tabs para Guitarra, Bajo y Ukulele

  • Am-G-C  Dm-E
    
    Am      G      C           Dm         E
    Sé que tu no quieres que yo a tí te quiera
    Am      G      C           Dm         E
    Siempre tu me esquivas de alguna manera
    Am      G          C        Dm       E
    si te busco por aquí me sales por allá
    Am      G          C   Dm                E
    lo único que yo quiero no me hagas ya sufrir más
    Am      G
    tu verás........
    
    (INSTRUMENTAL)
    C  Dm         E    Am G     C  Dm         E
    Am G     C  Dm         E
    Am G     C  Dm         E
    ______
    
    Am      G      C            Dm           E
    
  • Am      G      C           F         E
    Sé que tu no quieres que yo a tí te quiera
    Am      G      C           F         E
    Siempre tu me esquivas de alguna manera
    Am      G          C        F       E
    si te busco por aquí me sales por allá
    Am      G          C   F                E
    lo único que yo quiero no me hagas ya sufrir más
    Am      G
    tu verás........
    
    (INSTRUMENTAL)
    C  F         E    Am G     C  F         E
    Am G     C  F         E
    Am G     C  F         E
    ______
    
    Am      G      C            F           E
    Por tu mal comportamiento te vas a arrepentir
    Am              G      C       F         E
    
  • g|-9--7-5-5---------|
    d|7--5---5---7---9--|x25
    a|----------5-5-7-7-|osea hasta el minuto 2:11
    e|------------------|
    
         despues se realiza el siguiente cambio
    g|-9--7-5-5-----------|
    d|7--5---5---7---6-9-7|
    a|----------5-5-7-----|
    e|--------------------|esperamos un momento
    
         y cuando vuelve se hace esto
    g|--|...|------------|
    d|7-|...|7--------9-7|
    a|--|...|--10-8-7----|x4
    e|--|...|------------|
    
    g|-----7-9----|
    d|7-10-------7|
    a|---------7--|x4
    e|------------|
    
    g|------------|
    d|7--------9-7|
    a|--10-8-7----|x4
    e|------------|
    
    g|-----------|
    d|7-------9-7|
    a|--5-6-7----|x4
    e|-----------|
    
    g|------------|
    d|7--------9-7|
    a|--10-8-7----|x16
    e|------------|osea un poco antes de terminar el disco
    
          y al final se hace esto
    g|--------------|
    d|7-----------67|
    a|--10-8-7-77---|
    e|--------------|
  • g|----9--------7---5---5----------7-------9--|
    d|-7-------5---------5---------7--------9----|esta parte va desde 0:00
    a|--------------------------5---------7------|hasta 2:19
    e|-------------------------------------------|
    
    despues viene este corte
    g|----9--------7---5---5--------------------|
    d|-7-------5---------5---------6---9---7----|
    a|---------------------------7--------------|
    e|------------------------------------------|
    despues viene una introduccion de piano desde 2:14 hasta 2:18,
    
    despues viene esto:
    (2:19)
    g|-------------------|
    d|-------------------| se repite hasta el final de la cancion.
    a|-------5--7--5-----|
    e|-5--7-----------5--|
  • +
    ¡Colabora con nosotros!
    Envíanos tu versión de esta canción

Letra de Llorarás
Sé que tu no quieres que yo a tí te quiera
Siempre tu me esquivas de alguna manera
si te busco por aquí me sales por allá
lo único que yo quiero no me hagas ya sufrir más
tu verás........
(INSTRUMENTAL)
______
Por tu mal comportamiento te vas a arrepentir
bien caro tendrás que pagar todo mi sufrimiento
llorarás y llorarás, sin alguien que te consuele
así se dará usted cuenta que si te engañan duele
nana nana
(INSTRUMENTAL)
Después vendrás a mí pidiéndome perdón
pero ya mi corazón no se acuerda más de tí
Llorarás y llorarás sin nadie que te consuele
Así se dará usted cuenta que si te engañan duele
¡¡TE LO JURO QUE SI!!!
¡¡¡Bandolera!!!
Llorarás,
llorarás,
Llorarás
[Llorarás]
Como lo sufrí yo [llorarás]
Oye tu llorarás [llorarás]
Nadie te comprenderá [llorarás]
Llorarás, llorarás.
PA' GOZAR




[Llorarás chords][Llorarás cifra]
© LaCuerda.net · aviso legal · privacidad · es · en · pt · contacto