Acordes de Guitarra » O »la Onda Vaselina » Te Quiero Tanto Tanto (Tab)

Te Quiero Tanto Tanto
la Onda Vaselina

Letras, Acordes y Tabs para Guitarra, Bajo y Ukulele

  • LA ONDA VASELINA-
    TE QUIERO TANTO TANTO
    
    INTRO: G-D-Am-C x2
    
    G       D
    Si tal vez,
    Am              D
    pudieras comprender,
    G      D
    que no sé
    Am               D
    cómo expresarme bien.
    
    Em      Bm
    Si tal vez,
    C               Bm
    pudiera hacerte ver,
    C               Bm
    que no hay otra mujer
    
  • G        D  Am              C
    si tal vez pudieras comprender
     G      D  Am               C
    que no se como expresarme bien
    Em       D  Am             Bm
    si tal vez pudiera hacerte ver
    C                 Bm  Am                D
    que no hay otra mujer mejor que tu para mi
    G       D  Am               C
    si tal vez me harias muy feliz
    G       D  Am               C
    si tal vez me lo podrías decir
    Em       D Am             Bm
    si tal vez detalle a detalle
    C              Bm    Am       D
    podrías conquistarme sería tuya
                   G                     D
    te quiero tanto tanto tanto tanto tanto
                      Am         C   D
    cada día un poco más.. ahaaaaaaaa
    
  • E---3
    B---3
    G---0
    D---0
    A---0
    E---2
    
    
    - Cuando aparezca el * significa que
    antes de pasar a la siguiente nota tienes
    que poner el meñique en la 1ra cuerda, 3er traste
    (pero es rapido)
    
    - En el coro, en la ultima linea, las notas: G   G'  Am
    se toca primero las cuerdas graves y desúes las
    cuerdas agudas con cada nota respectivamente
    
    Espero que la difruten...
    
    G        D*  Am              C
    
  • DO RE MI FA SOL LA SI
    C  D  E  F  G   A  B
    
    #=sostenido
    m=menor
    7=con septima
    
    
    Esta es la version de la tele, tocada sin capo:
    
    intro   G# D# Am#7 C#
            G# D# C#
    
    *Verso* 
    
    G#         D#    C#              D#
    Si, tal vez, pudieras comprender,
    
    G#         D#   C#               D#     
    que, no se, como expresarme bien.
    
  • Esta es la version en bajo que les dije que sacaria.
    Como ya les dije si acompañan este bajeo con las pisadas
    que yo ya saque en la otra transcripcion se oye super bien
    pruebenlo:
    
    INTRO: x2
    
    E-4-----------6-------
    A-------6------------4
    D---------------------
    G---------------------
    
    
    Verso: x2
    E-4------------6------
    A-------6------------6
    D---------------------
    G---------------------
    
    Pre-coro:
    E-1-------------------
    A----3--4--3—4—-3--1--
    D--------------------1
    G---------------------
    
    Se repite el “Verso” y el “Pre-coro” 2 veces cada uno
    y después viene el CORO:
    
    CORO:
    E-4--3-4--1---------
    A------------3--4--6
    D-------------------
    G-------------------
    
    E-4---1----------
    A---------3--4--6
    D----------------
    G----------------
    
    Esto se toca en la parte “te quiero tanto tanto tanto amor…”
    E-6----
    A----6-
    D------
    G------
    
    Y luego esto 2 veces:
    E-4-----------4-------
    A-------6------------3
    D---------------------
    G---------------------
    
    Todo se repite desde el “verso”, y eso es 
  • Esta es la version en bajo que les dije que sacaria.
    Como ya les dije si acompañan este bajeo con las pisadas
    que yo ya saque en la otra transcripcion se oye super bien
    pruebenlo:
    
    INTRO: x2
    
    E-4-----------6-------
    A-------6------------4
    D---------------------
    G---------------------
    
    
    Verso: x2
    E-4------------6------
    A-------6------------6
    D---------------------
    G---------------------
    
    Pre-coro:
    E-1-------------------
    A----3--4--3—4—-3--1--
    D--------------------1
    G---------------------
    
    Se repite el “Verso” y el “Pre-coro” 2 veces cada uno
    y después viene el CORO:
    
    CORO:
    E-4--3-4--1---------
    A------------3--4--6
    D-------------------
    G-------------------
    
    E-4---1----------
    A---------3--4--6
    D----------------
    G----------------
    
    Esto se toca en la parte “te quiero tanto tanto tanto amor…”
    E-6----
    A----6-
    D------
    G------
    
    Y luego esto 2 veces:
    E-4-----------4-------
    A-------6------------3
    D---------------------
    G---------------------
    
    Todo se repite desde el “verso”, y eso es 
  • +
    ¡Colabora con nosotros!
    Envíanos tu versión de esta canción

Letra de Te Quiero Tanto Tanto
si tal vez pudieras comprender
que no se como expresarme bien
si tal vez pudiera hacerte ver
que no hay otra mujer mejor que tu para mi
si tal vez me harias muy feliz
si tal vez me lo podrías decir
si tal vez detalle a detalle
podrías conquistarme sería tuya
te quiero tanto tanto tanto tanto tanto
cada día un poco más.. ahaaaaaaaa
te quiero tanto tanto tanto tanto tanto
para mi no hay nadie igual no lo hay
te quiero tanto tanto tanto tanto amor
que ya no puedo más... que ya no puedo mas.....
pues tal vez el mundo aprenderá
con nuestro amor lo bello que es amar
y tal vez lo vuelva a repetir
pareja por pareja el mundo entero al fin..
te quiero tanto tanto tanto tanto tanto
cada día un poco más.. ahaaaaaaaa
te quiero tanto tanto tanto tanto tanto
para mi no hay nadie igual no lo hay
te quiero tanto tanto tanto tanto amor
que ya no puedo más... que ya no puedo mas.....
que ya no puedo más... que ya no puedo mas.....
con mucho cariño para gaby
TE AMO MI AMOR!!!!
TE AMO

Video de Te Quiero Tanto Tanto
[]




[Te Quiero Tanto Tanto chords][Te Quiero Tanto Tanto cifra]
© LaCuerda.net · aviso legal · privacidad · es · en · pt · contacto