Acordes de Guitarra » O »Once tiros » Maldicion (Tab)

Maldicion
Once tiros

Letras, Acordes y Tabs para Guitarra, Bajo y Ukulele

  •       Bm        G       F#
    Maldicion otro dia como ayer,
        Bm            G         F#
    sentado frente a la television,
          Bm          G        D  A
    mutacion es mi estado natural,
          Bm           G           F#
    peligroso pal que se quiera colgar.
    
         Bm         G         F#
    Y menti sobre todo lo que hay,
         Bm         G         F#
    ya no supe lo que iba a pasar,
         Bm         G         D  A
    hoy lleve mi cabeza a volar,
         Bm         G              F#
    y pedi que de alla no me bajan mas, mas, mas
    
    Mas que hoy, mas que ayer, mas que dos, mas que vos,
    y vos quien sos para venir hablar de comprension,
    
  • B:-------------10------------------7---x---7h8p7h8-8/10---10-8-7h8p7-
    G:-----7h9/11-----11p9p7-----------7---x---7h9p7h9-9/11---11-9-7h9p7-
    D:---9--------------------9---7h9------------------------------------
    A:-------------------------------------------------------------------
    E:-------------------------------------------------------------------
    
    
    --------------------------------14/12--------12/10-------10/9-----9---
    --7-----7-----12---(12)/--12-15--------10-14--------8-12-------7------
    --9b11--9b11--14b16---------------------------------------------------
    ----------------------------------------------------------------------
    ----------------------------------------------------------------------
    ----------------------------------------------------------------------
    
    --7/---15-----10--------12----------------10----------10-12b14-12-----
    --7/---17--------12--------14--------12------12----12--------------15-
    --------------------12--------14--------------------------------------
    ----------------------------------------------------------------------
    ----------------------------------------------------------------------
    ----------------------------------------------------------------------
    
  • Bueno la tab de la intro de Maldición..Corrección de la de chope
    
    
     --------------------------------
     ----------10----------------7--W
     --7-h9-11----9--7-----------7--A
     9------------------9--7-h9-----C
     -------------------------------K
     -------------------------------A
    
     ---------------------------------------
     8--8--8--8--/10---------------------7------
     7-h9--7-h9--/11-----11-9-7-h9-p7-h9-9b(11)-
     ---------------------------------------
     ---------------------------------------
     ---------------------------------------
    
     ---------------14-12-------12-10-------10-8-------8-7-
     10b(12)-12-h15-------10-h12------8-h10-------7-8------
     ------------------------------------------------------
     ------------------------------------------------------
     ------------------------------------------------------
     ------------------------------------------------------
    
     7-----12----10------12---------------10-------
     7-----12-------12------14--------12-----12---
     ------------
  •       Bm        G       F#
    Maldicion otro dia como ayer,
        Bm            G         F#
    sentado frente a la television,
          Bm          G        D - A
    mutacion es mi estado natural,
          Bm           G           F#
    peligroso pal que se quiera colgar.
    
             Bm           G           F#           Bm  -  F#
    ...y la razon no la ves ni por decreto de Dios.
    
    
    Estribillo:
    ===========
           D          A        Bm  -  G
    Y hay mas de lo que vos sabes,
           D          A       Bm  -  G
    y hay mas de lo que imaginas,
           D          A    Bm  -  G
    
  • B:-------------10------------------7---x---7h8p7h8-8/10---10-8-7h8p7-
    G:-----7h9b11-----11p9p7-----------7---x---7h9p7h9-9/11---11-9-7h9p7-
    D:---9--------------------9-9--7h9-----------------------------------
    A:-------------------------------------------------------------------
    E:-------------------------------------------------------------------
    
    ------------------------10----14/12------9----12/10---7----10/9---9--
    --7-----7-----12-----12---------------10------------8-----------7----
    --9b11--9b11--14b16--------------------------------------------------
    ---------------------------------------------------------------------
    ---------------------------------------------------------------------
    ---------------------------------------------------------------------
    
    --7/---12-----10--------12----------------10----------10-12/14--12---
    --7/---12--------12--------14--------12------12----12--------------15
    --------------------12--------14-------------------------------------
    ---------------------------------------------------------------------
    ---------------------------------------------------------------------
    ---------------------------------------------------------------------
    
    
  • +
    ¡Colabora con nosotros!
    Envíanos tu versión de esta canción

Letra de Maldicion
Maldicion otro dia como ayer,
sentado frente a la television,
mutacion es mi estado natural,
peligroso pal que se quiera colgar.
Y menti sobre todo lo que hay,
ya no supe lo que iba a pasar,
hoy lleve mi cabeza a volar,
y pedi que de alla no me bajan mas, mas, mas
Mas que hoy, mas que ayer, mas que dos, mas que vos,
y vos quien sos para venir hablar de comprension,
si me escupistes la jeta mas de una vez,
de vez en cuando te acordaste de mi ser, y es que
Hoy estoy, hoy me voy, hoy me quedo que se yo,
si al final existir es morir al reves.
otra vez no le hice caso al corazon,
y la razon no la ves ni por decreto de Dios.
Y hay mas de lo que vos sabes,
y hay mas de lo que imaginas,
y hay mas de lo que crees,
y hay mas de lo que podes.
(Esto se Repite durante toda la parte Rapeada)
No porque este hebrio,
es que me voy pal otro lado,
que me sale de salado,
que tengo dentro de mi,
No me hagas la cabeza,
que ya no tengo mas tiempo,
de escuchar tus incoercias,
yo me quiero ir de aqui.
Juro arrodillado,
porque aca me parta un rayo,
hay que seguirse acarnchando,
no te da para vivir.
Elegi tu camino
que no se cruce con el mio,
y que no me rompas el delirio,
que asi yo estoy muy feliz.
Y hay mas de lo que vos sabes,
y hay mas de lo que imaginas,
y hay mas de lo que crees,
y hay mas de lo que podes ver.




[Maldicion chords][Maldicion cifra]
© LaCuerda.net · aviso legal · privacidad · es · en · pt · contacto