Acordes de Guitarra » O »Omar Esaú » Soy un loco (Tab)

Soy un loco
Omar Esaú

  • Letra y Acordes
         C          Am            C            Am
    E---------------------------------------------------
    ----------------------------------------------------
    ---10-----------7-----------10-----------7----------
    ------9-----------9------------9-----------9--------
    --------8-----------8------------8-----------8------
    e---------8--12-------7--8---------8--10-------7--8-
    
    
      C
    yo ya no te puedo olvidar
             Am
    me he vuelto un loco desde que no estas
            Dm
    como quisiera que estuvieras aqui
           G
    para tenerte y poder ser feliz
    
      C
    no se como me enamore
    
  • Letra y Acordes
                       A        F#m
              e----------------------
              B-----0-2--------------
              G----2-------------2---
              D---2----------4-6-----
              A--0----------4--------
              E------------2---------      (2)
     A
    Yo ya no te puedo olvidar,
                      F#m
    me he vuelto un loco desde que no estás,
              Bm
    como quisiera que estuvieras aquí,
            E
    para tenerte y poder ser feliz.
    
    No sé como me enamoré,
    la culpa es de este frágil corazón,
    como un tatuaje pegado a mí,
    pues tus caricias me hacen sentir.
    
  • +
    ¡Colabora con nosotros!
    Envíanos tu versión de esta canción

Letra de Soy un loco
yo ya no te puedo olvidar
me he vuelto un loco desde que no estas
como quisiera que estuvieras aqui
para tenerte y poder ser feliz
no se como me enamore
la culpa es de este fragil corazon
como un tatuaje pegado a mi
pues tus caricias me hacen sentir
que soy un loco
enamorado de tus dulces besos
que si no fuera tan solo por eso
mi vida seria infeliz
que soy un loco
que no resiste estar tan lejos
que cada vez que miro una estrella
me recuerda mas a ti
sufro cada vez que te vas
soy diminuto en esta inmensa ciudad
el tiempo se detiene sin ti
soy una roca volando hasta al fin
busco y no te puedo encontrar
y mis vacios no los puedo llenar
porque tu ausencia es un veneno tan vil
que mi agonia no puedo morir
por que soy un loco....
mi mundo esta tan gris
que soy un infeliz solo y sin ti
no dejo de sentir que te amo hasta morir
TONOS
Saludos al coro de Santa Teresa en especial a
LILY, TAVO, FEDE y JOSUE
saludos a toda la family en Camargo

Video de Soy un loco
[]



© LaCuerda.net · aviso legal · privacidad · contacto
DINAMICO