Acordes de Guitarra » N »La Nueva Luna » La pagaras (Tab)

La pagaras
La Nueva Luna

Letras, Acordes y Tabs para Guitarra, Bajo y Ukulele

  • Gm  (FGm)
    
    Gm            F
    Eres tu, la culpable De mi sufrimientos
            Gm      F
    Eres tu la que se ha reído todo el tiempo
          D#                 D7            Gm
    De mi amor y de todo lo que te brinde yo
    
    
               F              Gm
    Pero ya veras tú no jugabas
               F              Gm      
    Cuando a ti te engañen tu la pagaras
               F              Gm
    Pero ya veras lo que es el amor
               F              Gm
    Cuando sufras como sufrí yo
    
          Bb            F
    
  • Esta cancion me la pidio una persona, muy enfadosa por cierto, k
    le gusta mucho este grupo. Y la guitarra suena genial, es una de
    las pocas bandas de este estilo k me gustan por la forma en k
    toca este guitarrista la verdad si se la saca. weno pues este es
    el 1er. minuto de la cancion la verdad esta medio cmplicado asi
    k ponte a practicar, cualkier duda me pueden escribir a mi correo
    "slash_skeleton@hotmail.com".
    
               x7
    E||--------------3-----|
    B||------------3-------|
    G||----------3---------|
    D||--------5-----------|
    A||------5-------------|
    E||--------------------|
    
    aki empieza lo chido ! :
    E||------------------------------------|
    B||------------------------------------|
    G||-3-2---3-2------2-----2-------------|
    D||-----5-----5-3----5-3---5-3-3/5-----|
    A||------------------------------------|
    E||------------------------------------|
    
    E||------------------------------------|
    B||------------------------------------|
    G||-3-2---3-2----5-7-8-5-7-3-5---------|
    D||-----5-----5-------
  • +
    ¡Colabora con nosotros!
    Envíanos tu versión de esta canción

Letra de La pagaras
Eres tu, la culpable De mi sufrimientos
Eres tu la que se ha reído todo el tiempo
De mi amor y de todo lo que te brinde yo
Pero ya veras tú no jugabas
Cuando a ti te engañen tu la pagaras
Pero ya veras lo que es el amor
Cuando sufras como sufrí yo
Ya lo veras la pagaras
Cuando te engañen sentirás
Lo que he sentido yo
Ya no tendrás con quien jugar
Búscate otro que se preste
Al juego de tu amor
REPITE TODO




[La pagaras chords][La pagaras cifra]
© LaCuerda.net · aviso legal · privacidad · es · en · pt · contacto
DINAMICO