Acordes de Guitarra » N »N'Sync » Yo te voy a amar (Tab)

Yo te voy a amar
N'Sync

  • Letra y Acordes
    intro: D, A, Bm
    
         D      A         Bm                     D      A
    
    E --2----------2----0-2-3-2-----2------
    B --1----3-4---3-3----------3---1---3-4-
    G --2----3-----4----------------2---3---
    D -------3-----4--------------------3---
    A -------------2-2----------------------
    E -------------2-------------------------
    
    A               Bm      
    Cuando sientas tristeza
    G                A      
    Que no puedas calmar
                    Bm
    Cuando hay un vacio 
                   A
    Que no puedas llenar
    Em            A
    
  • Letra y Acordes
        D    A    Bm    G+9
        D    A    G     G
     
    
       A                 Bm   
      Cuando sientas tristeza  
    
       G            A
      que no puedas calmar
    
       A              Bm
      Cuando hay un vacio
    
      G            A
      que no puedas llenar
    
      G             A
      te abrazare te hare olvidar
    
      D   /     A        Bm
    
  • Tablatura
    |----------------------------0-2-|
    |------7-----------------3-3-----|
    |2/--7-------------9-------------|
    |------------2/--7---------------|
    |--------------------------------|
    |--------------------------------|
    
    |       |       |       |
    |3-2h3p2p0---2-------------------|
    |----------3-3-----3-3/--5-------|
    |----------------2---------------|
    |--------------------------------|
    |--------------------------------|
    |--------------------------------|
    
    |       |       |       |        |
    |--------------------------------|
    |3---2h3p2p0---------------------|
    |----------------2/--4-----------|
    |--------------0-----------------|
    
  • Tablatura
                      E A D G B E
            D         x x 0 2 3 2
            A         x 0 2 2 2 0
            Bm7       x 2 4 2 3 2
            G         3 2 0 0 0 2
            Gmaj9     3 x 4 4 3 5
            A2        x 0 2 2 0 0
            G(9)      3 x 0 2 0 3
            Asus      x 0 2 2 3 0
            Em7       0 2 2 0 3 0
            A7        x 0 2 0 2 0
            A/C#      x 4 2 2 2 x
            Gm6       3 x 0 3 3 0
            D/A       x 0 0 2 3 2
            C#m7      x 4 6 4 5 4
            E/B       x 2 2 1 0 0
            Amaj9     x 0 2 4 2 4
            A/E       x x 2 2 2 0
    
    p: es igual al "h" solo que descendente... lol
    
  • Tablatura
                      E A D G B E
            D         x x 0 2 3 2
            A         x 0 2 2 2 0
            Bm7       x 2 4 2 3 2
            G         3 2 0 0 0 2
            Gmaj9     3 x 4 4 3 5
            A2        x 0 2 2 0 0
            G(9)      3 x 0 2 0 3
            Asus      x 0 2 2 3 0
            Em7       0 2 2 0 3 0
            A7        x 0 2 0 2 0
            A/C#      x 4 2 2 2 x
            Gm6       3 x 0 3 3 0
            D/A       x 0 0 2 3 2
            C#m7      x 4 6 4 5 4
            E/B       x 2 2 1 0 0
            Amaj9     x 0 2 4 2 4
            A/E       x x 2 2 2 0
    
    p: es igual al "h" solo que descendente... lol
    
  • +
    ¡Colabora con nosotros!
    Envíanos tu versión de esta canción

Letra de Yo te voy a amar
Cuando sientas tristeza
que no puedas calmar
Cuando hay un vacio
que no puedas llenar
te abrazare te hare olvidar
lo que te hizo sufrir
no vas a caer mientras que estes junto a mi
Si siente un frio tu corazon
sere tu abrigo tu ilusion
hasta ya no respirar yo te voy a amar

yo te voy a amar

yo siempre te amado
mi amor yo estare
por siempre a tu lado
nunca me alejare
prometo mi amor te juro ante Dios
nunca te voy a faltar
tu corazon no volvera a llorar
Si siente un frio tu corazon
sere tu abrigo tu ilusion
hasta ya no respirar yo te voy a amar

yo te voy a amar

Sigo muriendo por ti yo te quiero asi
sin tu amor en mi vida mi vida
no se como podre yo vivir
si siente un frio tu corazon

sere tu abrigo tu ilusion
Hasta ya no respirar yo te voy a amar

sin ti amaria no vivireee

si no canto como te voy a querer

hasta ya no respirar yo te voy a amar
hasta ya no respirar yo te voy a amar

Video de Yo te voy a amar
[]



© LaCuerda.net · aviso legal · privacidad · contacto