Acordes de Guitarra » N »Nonpalidece » La Flor (Tab)

La Flor
Nonpalidece

Letras, Notas, Punteos, Tablaturas y Acordes de Guitarra (Tabs & Chords)

  • Letra y Acordes
    A#
    Me arme de coraje esta mañana
    Cm
    Y corri hasta tu ventana
    A#
    Grite fuerte ke te amaba
    Cm
    Y vos tu sonrisa me regalabas
    
    Dm
    Y me desperte
    Cm
    estaba soñandolo
    Dm
    Una llovizna cae
    Cm
    De vuelta al trabajo hoy
    
    A#
    No me desanime
    
  • Letra y Acordes
    LA FLOR
    
    G
    Me arme de coraje esta mañana
    Am
    Y corri hasta tu ventana
    G
    Grite fuerte ke te amaba
    Am
    Y vos tu sonrisa me regalabas
    
    Bm
    Y me desperte
    Am
    estaba soñandolo
    Bm
    Una llovizna cae
    Am
    De vuelta al trabajo hoy
    
    
  • Tablatura
    Aca les dejo el arreglo que hacen los vientos, para guitarra.
    Pueden tocarlo como esta ahi, o simplemente cantar
    "Y dale dale nompa, dale dale dale nompa..."
    
    1 -------------------------------------------
    2 --------------3--6--3----1-3-4-3-1-3-1-1---
    3 ---3----3----------------------------------
    4 -3---3-------------------------------------
    5 -------------------------------------------
    6 -------------------------------------------
    
    
    1 ----------------------------------------------
    2 ----1---1----3--1-----------------------------
    3 -3----3------------3---------3--2------3--3---
    4 ------------------------3--5------5--3--------
    5 ----------------------------------------------
    6 ----------------------------------------------
    
    
    
    Cualquier cosa
    javi_bostero87@hotmail.com
  • Tab p/Bajo
    estoy modificando el tab que dejo el otro
    por que ami me suena mejor asi
    solo cambie de La# a Si y se queda el Do eso de la base 1
    de la base 2 se queda en Do y Re
    
    BASE 1
    
    G ---------------------
    D ---------------------
    A 2-2-2-2-2-2-2-2-2-0-2
    E ---------------------
    
    G ---------------------
    D ---------------------
    A 3-3-3-3-3-3-3-3-3-0-3
    E ---------------------
    
    Me arme de coraje esta mañana
    Y corri hasta tu ventana
    Grite fuerte ke te amaba         BASE 1
    Y vos tu sonrisa me regalabas
    
    BASE 2
    
    G --------------------
    D ------5-----------5-
    A 3-3--3----3-3-3-3---
    E --------------------
    
    G --------------------
    D ------7-----------5-
    A 5-5--5----3-3-3-3---
    E --------------------
    
    
    
    Y me desperte
    estaba soñandolo
    Una llovizna cae                 BASE 2
    De vuelta al trabajo hoy
    
    
    No me desanime
    A veces cuesta pero hoy           BASE 1
    No me desanime
    
    
    Tome mi bicicleta y sali
    La llovizna ya paro con su rocio todo todo perfumo
    Y es que este aroma me recuerda tanto a ti            BASE 1
    U
  • +
    ¡Colabora con nosotros!
    Envíanos tu versión de esta canción

Letra de La Flor
Me arme de coraje esta mañana
Y corri hasta tu ventana
Grite fuerte ke te amaba
Y vos tu sonrisa me regalabas
Y me desperte
estaba soñandolo
Una llovizna cae
De vuelta al trabajo hoy
No me desanime
A veces cuesta pero hoy
No me desanime
Tome mi bicicleta y sali
La llovizna ya paro con su rocio todo todo perfumo
Y es que este aroma me recuerda tanto a ti
Una flor es lo ke que tu eres para mi
Nunca notastes que
Yo siempre estube aqui
Nunca me mostrastes
Pero hoy lo vas a saber
No me desanime
A veces cuesta pero hoy
No me desanime
Correre hasta tu ventana
Yo te rescatare
Y me despierto hoy
Mi mañana es como la soñe
Y me levante
con tu sonrisa iluminando todo
Quiero que sepas que
Tu siempre vas a ser
la flor mas dulce de mi jardin
La flor mas dulce de mi jardin....
La flor mas dulce de mi jardin....
De mi jardin....
De mi jardin....



© LaCuerda.net · Aviso Legal · Privacidad