Tablatura para Guitarra de Los Nocheros: Algo Sobrenatural
Conexión · Inscripción
Letras y Acordes
Pantalla Completa
Imprimir
Versión Texto
Añadir Favorito
Otras Versiones

Mostrar Diagramas
Desfile Automático
Manipular Acordes
Formato del Texto


Algo Sobrenatural(TAB)

Los Nocheros

calidad:
noch0502
AUTOR: Los Nocheros  corregir
ALBUM: Tiempo de Amor
Enviado por José
Aca les dejo el punteo d la intro, es el original d esta hermosa cancion
q se la dedico a mi amiga Priscila q a veces, A VECES tiene mas de angel
q de propia voluntad..





1------3-2-3--/-------3-2-3-/-----3-2-5---3-2-----------/--------------
2--3-3-------/----3-3------/--5-5-------------5-3------/---------------
3-------------------------------------------------5-4-/----------------
4----------------------------------------------------------------------
5----------------------------------------------------------------------
6----------------------------------------------------------------------


1------3-2-3---/-----3-2-3---/-----3-2-5---3-2---2--5-5----3-2-3-------
2--3-3--------/--3-3--------/--5-5-------------5-----------------------
3------------/-------------/-------------------------------------------
4----------------------------------------------------------------------
5----------------------------------------------------------------------
6----------------------------------------------------------------------
Este fichero es trabajo propio de su transcriptor y representa su interpretación personal de la canción. El material contenido en esta página es
para exclusivo uso privado, por lo que se prohibe su reproducción o retransmisión, así como su uso para fines comerciales.

© LaCuerda.net · Aviso Legal · Privacidad